» » »

Cold, Give Bass tabs (ver.2)

Artists:  A B C D E F G H I J K L M N O P Q R S T U V W X Y Z # 

Give Bass tabs (ver.2)

Cold Tabs
Rating:
0/5 (0 votes)
Give lessons Tabs too difficult? Try these video lessons and learn fast
                Give Bass Tab by Cold,
*Accurately Tabbed* by Sikmantek

Tuning: Standard 5-string tuning


Verse:
G---------------------------------|
D---------------------------------|
A---------------------------------|
E---------4-4-4-4-----------------|
B-1-1-1-1---------4-4-4-4-2-2-2-2-|

Chorus:
G----------------------------------------------------------------|
D----------------------------------------------------------------|
A----------------------------------------------------------------|
E--------/8-6-4--------/6------/6--------------------------------|
B-6-6-6-6-------4-4-4---4-4-4----2-2-2-2-2-2-2-2-4-4-4-4-4-4-4-4-|

Bridge:
G-----------------------------------------| |--------------------| |
D-----------------------------------------|2|--------------------|2|
A-----------------------------------------|X|--------------------|X|
E-----------------------------------------| |------444-----------| |
B-66-66----44-44----22-22----44-44--44444-| |-1-11----4-444-2222-| |

OUTRO:
G----------------------------------------------------------------|
D----------------------------------------------------------------|
A----------------------------------------------------------------|
E----------------------------------------------------------------|
B-6-66-66-6664-4-44-4442-2-22-2226-6-66-6664-4-44-4446*----------|

 * = ring out

ORDER of Song:
  Intro(verse) 4x / Verse  8X
  Chorus 2x
  Verse  10x / Bridge 1x
  Chorus 4x
  Outro  1x
            
Submit corrections

comments powered by Disqus
↑ Back to top | Cold Bass for Give. Lyrics for acoustic guitar and electric guitar. Tablatures and chords are parodies/interpretations of the original songs. You may use it for private study, scholarship, research or language learning purposes only