» » »

Cold, End Of The World Tabs (ver.3)

Artists:  A B C D E F G H I J K L M N O P Q R S T U V W X Y Z # 

End Of The World Tabs (ver.3)

Cold Tabs
 Rating:
4/5 (4 votes)
End Of The World lessons Tabs too difficult? Try these video lessons and learn fast
1
                Tuning: A,D,G,C,f,a,d  (its really played in C tuning)
Key:  x= muted string   *= palm mute
      /= slide          ~= ring out
      ^= bend

I tabbed out all the different parts to this song. You can 
figure out the order yourself. This dong is actually played on
6-string guitars tuned C,G,C,f,a,d but i tabbed it for 7-string
cause this is how i play it on mine, Since my band covered this 
song. For intro/verse riff use light dist. delay or echo and an 
auto-wah effect. have fun.


intro/verse 
               gtr. 1                 gtr. 2
|--------------------|----------------------|
|--------------------|----------------------|
|----10~~------------|-------18^~~----------| use echo, auto wah, and slight flange
|--------------------|------x---------------|
|--------------------|----------------------|
|--------------------|----------------------|
|--------------------|----------------------|


verse                                                 gtr. 2
|-----------------------------------------------------------|
|-----------------------------------------------------------| gtr. 1 plays the 
|-----------------------------------------------------------| delayed notes 
|-----------------------------------------------------------| (intro riff)
|-----------------------------------------------------------| this riff is not
|--3-3-3-3-3/6-6-6-6-6-6-6----------------------------------| very audible on
|--------------------------4-4-4-4-4-4-4\3-3-3-3-3-3-3-3----| the album
   * * * *     * * * * * * * * * * * *     * * * * * * 

chorus                                                    both gtrs.
|-------------------------------------------------------------------|
|-------------------------------------------------------------------|
|-------------------------------------------------------------------|
|--5-5-5-5-5-5-5-5-8-8-8-8-8-8-8-8----------------------------------|
|--5-5-5-5-5-5-5-5-8-8-8-8-8-8-8-8-6-6-6-6-6-6-6-6-5-5-5-5-5-5-5-5--|
|--3-3-3-3-3-3-3-3-6-6-6-6-6-6-6-6-6-6-6-6-6-6-6-6-5-5-5-5-5-5-5-5--|
|----------------------------------4-4-4-4-4-4-4-4-3-3-3-3-3-3-3-3--|

bridge riff                                   gtr. 2  
|---------------------------------------------------|
|---------------------------------------------------|
|---12--14--15--12--14--15--/12--14--15-17-15--14---|  played by gtr. 2
|---------------------------------------------------|  while gtr. 1 plays
|---------------------------------------------------|  chorus riff
|---------------------------------------------------|  
|---------------------------------------------------|  w/ flanger and chorus
            
Submit corrections

comments powered by Disqus
↑ Back to top | Cold Tabs for End Of The World. Lyrics for acoustic guitar and electric guitar. 1 Tablatures and chords are parodies/interpretations of the original songs. You may use it for private study, scholarship, research or language learning purposes only