» » »

End Of The World Tabs (ver.2)

Artists:  A B C D E F G H I J K L M N O P Q R S T U V W X Y Z # 

End Of The World Tabs (ver.2)

Cold
Rating:
5/5 (3 votes)

Hard to play? Try these video lessons and learn fast.
                Cold - End Of The World
Tuning - Drop D, down 1 whole step (C, G, C, F, A, D, low to high)
This is a really easy song and one of the best on the new CD.

Key:
X - Muted string
< - Pick scr*pe up the neck for shown amount of time
Verse: Use delay pedal set for about 8 repeats
D------------------------------------------
A------------------------------------------
F---10----10----10----10-------------------
C----X-----X-----X-----X-------------------
G----8-----8-----8-----8-------------------
C------------------------------------------

Chorus:
D----------------------------------------------------------------------------
A----------------------------------------------------------------------------
F----------------------------------------------------------------------------
C---------5--5-5-5-5-5-5-5-8--8-8-8-8-8-8-8-1--1-1-1-1-1-1-1-0--0-0-0-0-0-0-0
G-<-<-<-<-5--5-5-5-5-5-5-5-8--8-8-8-8-8-8-8-1--1-1-1-1-1-1-1-0--0-0-0-0-0-0-0
C-<-<-<-<-5--5-5-5-5-5-5-5-8--8-8-8-8-8-8-8-1--1-1-1-1-1-1-1-0--0-0-0-0-0-0-0

Bridge: Piano transcribed for guitar
D------------------------------------------
A------------------------------------------
F--12--14-15-12--14-15-12--14-15-17-15-14--
C------------------------------------------
G------------------------------------------
C------------------------------------------
            
Hard to play? Try these video lessons and learn fast. | Correct




comments powered by Disqus
↑ Back to top | Tablatures and chords are parodies/interpretations of the original songs. You may use it for private study, scholarship, research or language learning purposes only