» » »

Cure My Tragedy Bass tabs (ver.2)

Artists:  A B C D E F G H I J K L M N O P Q R S T U V W X Y Z # 

Cure My Tragedy Bass tabs (ver.2)

Cold
Rating:
0/5 (0 votes)

Hard to play? Try these video lessons and learn fast.
                Cold
"Cure My Tragedy (A Letter to God)"

~ 5 string bass ~ tuned down half a step ~
I put the order of parts of the song at the bottom


  Verse
G ------------------------------------------
D ------------------------------------------
A ------------------------------------------
E -----------3h5----------------------------
A ---2------------------2------0-0-0-0------

Chorus
G ----------------------------------------------------------------------------------
D ----------------------------------------------------------------------------------
A ------------------------------------------------2---------------------------------
E -3-3-3---3-3-3-3---2-2-2---2-2-2-2------------------------------------------------
A -------------------------------------2-2-2-2-2-----2-2-2-2----5-5-5-5-5---5-5-5---

Chorus 2
G ----------------------------------------------------------------------------------
D ----------------------------------------------------------------------------------
A ------------------------------------------------2---------------------------------
E -3-3-3---3-3-3-3---2-2-2---2-2-2-2------------------------------------------------
A -------------------------------------2-2-2-2-2-----2-2-2-2----5-5-5-5-5---5-5-5---

G ----------------------------------------------------------------------------------
D ----------------------------------------------------------------------------------
A ----------------------------------------------------------------------------------
E ----------------------------------------------------------------------------------
A -10-10-10---10-10---10-10-10-10------9-9-9---9-9---9-9-9-9------------------------

Chorus 3 (i couldn't put a lot of spacing inbetween these notes...
so just listen to the song and figure out the rhythm)
G ----------------------------------------------------------------------------------
D ----------------------------------------------------------------------------------
A ----------------------------------------------------------------------------------
E ----------------------------------------------------------------------------------
A 2-2-2-2-2-2-2-2-2--5-5-5-5-5-5-5-5-5---7-7-7-7-7-7-7-7-7---10-10-10-10-10--9-9-9-9

Outro
G ----------------------------------------------------------------------------------
D ----------------------------------------------------------------------------------
A ----------------------------------------------------------------------------------
E ----------------------------------------------------------------------------------
A ---10-10-10---10-10---10-10-10-10---9-9-9---9-9---9-9-9-9-------------------------


Order:
Verse (X5)
Chorus (X2)
Verse (X5)
Chorus 2
Chorus 3 (X2)
Chorus (X3)
Outro (X2)
            
Hard to play? Try these video lessons and learn fast. | Correct




comments powered by Disqus
↑ Back to top | Tablatures and chords are parodies/interpretations of the original songs. You may use it for private study, scholarship, research or language learning purposes only