>
 >
Came All The Way

Came All The Way Guitar Tabs

Cold - Came All The Way chords, tabs, tablatures, lyrics

Guitar lessons | Add/correct | Request | Top 50 tabs Artists:  A B C D E F G H I J K L M N O P Q R S T U V W X Y Z 0-9

Came All The Way Guitar Tabs – Cold

CD, Sheet music, Poster

Do you like Came All The Way? Share with your friends now
Tabs
Artist - Cold
Song - Came All the Way
Album - Year of the Spider (B-side track)
Tuning - 2 steps down, (low to high) C F Bb Eb G C

. = palm mute


Intro

no guitars


Pre-Verse 
  Gtr 1 (Terry)
-8\-3-5-5-3-3-5-6-6-5-3-3-5-5-3-5-8-8-8-8-6-6-6-6--3-5-5-3-3-5-6-6-5-3-3-5-5-3-5-8-8-8-8-6-6-6-6--
       . .       . . .     . . .                      . .       . . .     . . .
*this isnt exactly how many times you play each note, but it should give you a basic idea of the rhythm*


  Gtr 2 (Kelly)
----10~----------------------------10~------------------9-------------
--8-----10-8~---8-8-10~--11-10~--8-----10-8~--8-8-10-11---11-10-8-10--

---10-------------------------10-------------------------10-------------------------10----------------
-8----10-8-10p8-10p8-11-10--8----10-8-10p8-10p8-11-10--8----10-8-10p8-10p8-11-10--8----10-8-8-8h10p8--


Chorus (both guitars)
-----------------------------------------------
-----------------------------------------------
-----------------------------------------------
--7--7-7-7-5--5-5-5-5-5-2--2-2-2-3--3-3-3-3-3--
--5--5-5-5-3--3-3-3-3-3-0--0-0-0-1--1-1-1-1-1--
-----------------------------------------------


Verse 2 (Guitar 2, Kelly)
---10-------------------------10-------------------------10-------------------------10----------------
-8----10-8-10p8-10p8-11-10--8----10-8-10p8-10p8-11-10--8----10-8-10p8-10p8-11-10--8----10-8-8-8h10p8--


Bridge
   Gtr 1 (Terry)
-----------------------------------------
-----------------------------------------
-----------------------------------------
-----------------------------------------
--7-7-7-7-7-7-7-7-5--5-5-5-3--3-3-3-3-3--
--5-5-5-5-5-5-5-5-3--3-3-3-1--1-1-1-1-1--

   Gtr 2 (Kelly)
---------------------------------------
---------------------------------------
---------------------------------------
--7-7-7--7-7b--------------------------
----------------5--5-5-5-3--3-3-3-3-3--
----------------3--3-3-3-1--1-1-1-1-1--
       .

Outro
    Gtr 1 (Terry)
--7--7-7-7-5--5-5-5-5-5-2--2-2-2-3--3-3-3-3-3--7--7-7-7-5--5-5-5-5-5-2--2-2-2-3--3-3-3-3-3--
--5--5-5-5-3--3-3-3-3-3-0--0-0-0-1--1-1-1-1-1--5--5-5-5-3--3-3-3-3-3-0--0-0-0-1--1-1-1-1-1--

    Gtr 2 (Kelly)
-------------------------------------------------------------
--3--3-3-3-3/5~-5h6-6-6-6-6p5~--3--3-3-3-3/5-5h6-6-6-6-6/8~--
-------------------------------------------------------------
-------------------------------------------------------------
-------------------------------------------------------------
-------------------------------------------------------------

Intro - (0:34 of drums, bass, vocals, and synth. no guitars)
Pre Chorus - 1x (begins at 0:34)
Chorus - 4x
Verse 2 - 2x
Pre Chorus - 1x
Chorus - 4x
Bridge - 4x
Chorus - 4x
Outro - 2x





Comments


Popular Cold tabs & chords
Cure My Tragedy 3 Bass Tabs
Remedy Bass Tabs
Stupid Girl Bass Tabs
Everyone Dies Tabs
Go Away Tabs
Makes Her Sick 1 Tabs
No One Bridge Tabs
No One 2 Tabs
No One 4 Tabs
With My Mind Intro Tabs


Song lyrics



↑ Back to top | Tablatures and chords are parodies/interpretations of the original songs. You may use it for private study, scholarship, research or language learning purposes only
© 2014 AZChords.com Contact us | Privacy policy | DMCA | Add/correct tabs | Request tabs | Top 50 tabs