» » »

Bleed Tabs (ver.3)

Artists:  A B C D E F G H I J K L M N O P Q R S T U V W X Y Z # 

Bleed Tabs (ver.3)

Cold
Rating:
3/5 (7 votes)

Hard to play? Try these video lessons and learn fast.
                INTRO RIFF:
-----------

 GUITAR 1
C |-------------------------0---0------------0---0------------0----------|
G |--------7---7-------------------------------------------------------0-|
Eb|------0---0---0--------0---0---0--------0---0---0--------0---0--------|
Bb|----5----------------5----------------5----------------5----------0---|
F |--7----------------5----------------4----------------3----------5-----|
C |----------------------------------------------------------------------|
 GUITAR 2
C |-----------------------------------------------------12---------------|
G |--------------------------------------------12------------------------|
Eb|---------------------------9------------------------------------------|
Bb|----------------------------------------------------------------------|
F |----------------------------------------------------------------------|
C |----------------------------------------------------------------------|

 GUITAR 1
C |-------------------------0---0------------0---0------------0----------|
G |--------7---7-------------------------------------------------------0-|
Eb|------0---0---0--------0---0---0--------0---0---0--------0---0--------|
Bb|----5----------------5----------------5----------------5----------0---|
F |--7----------------5----------------4----------------3----------5-----|
C |----------------------------------------------------------------------|
 GUITAR 2
C |---------------------15-------------12--------------------------------|
G |---------------------------12--12-------------------------------------|
Eb|----------------------------------------------------------------------|
Bb|----------------------------------------------------------------------|
F |----------------------------------------------------------------------|
C |----------------------------------------------------------------------|



VERSE RIFF:
-----------

 GUITAR 1
C |------------------------0---0------------0---0------------0----------|
G |-------7---7-------------------------------------------------------0-|
Eb|-----0---0---0--------0---0---0--------0---0---0--------0---0--------|
Bb|---5----------------5----------------5----------------5----------0---|
F |-7----------------5----------------4----------------3----------5-----|
C |---------------------------------------------------------------------|
 GUITAR 2
C |--------2---2-----0--0---0-0----0----0----0----0----0---0-0----------|
G |----------0---0--------0-----0---------0----0---------0--------------|
Eb|----------------0----------------------------------------------------|
Bb|------2-------------0---------------------------------------0--------|
F |-----------------------------------4--------------3------------------|
C |---------------------------------------------------------------------|



CHORUS RIFF:
------------

 GUITAR 1 + GUITAR 2
C |-------3---------------3---------------3---------------3----------|
G |-------3-----3---------3-----3---------3-----3---------3-----3----|
Eb|-----0---0-----0-----0---0-----0-----0---0-----0-----0---0-----0--|
Bb|---0-------0-------0-------0-------0-------0-------0--------------|
F |---------------------------------3---------------2---------2------|
C |-3---------------2------------------------------------------------|
            
Hard to play? Try these video lessons and learn fast. | Correct




comments powered by Disqus
↑ Back to top | Tablatures and chords are parodies/interpretations of the original songs. You may use it for private study, scholarship, research or language learning purposes only