» » »

Cold, Black Sunday Bass tabs (ver.1)

Artists:  A B C D E F G H I J K L M N O P Q R S T U V W X Y Z # 

Black Sunday Bass tabs (ver.1)

Cold Tabs
 Rating:
4/5 (4 votes)
Black Sunday lessons Tabs too difficult? Try these video lessons and learn fast
                This is my favorite song on the album, and I didnt see anyone else do it, so 
I decided to. Its not hard to play, but the timing is very precious, and they 
mixed up the chorus quite a bit during the bass rest, But this is it. Enjoy:)

0:20                             Verse
G|----------------|----------------|----------------|----------------|
D|----------------|----------------|----------------|----------------|
A|----------------|----------------|----------------|----------------|
E|4-4---4---4---4-|4-4---4---4/6\4-|1-1---1---1---1-|1-1---1---1---1-|

G|----------------|----------------|----------------|----------------|
D|----------------|----------------|----------------|----------------|
A|----------------|----------------|----------------|----------------|
E|4-4---4---4---4-|4-4---4---4/6\4-|1-1---1---1---1-|1-1---1---1---1-|

G|----------------|----------------|----------------|----------------|
D|----------------|----------------|----------------|----------------|
A|----------------|----------------|----------------|----------------|
E|4-4---4---4---4-|4-4---4---4-4/6/|8-8---8---8---8-|8-8---8---8---8-|

G|----------------|----------------|----------------|----------------|
D|----------------|----------------|----------------|----------------|
A|----------------|----------------|----------------|----------------|
E|4-4---4---4---4-|4-4---4---4/6\4-|1-1---1---1---1-|1-1---1---1---1-|

1:00                            Chorus             
G|----------------|----------------|----------------|----------------|
D|----------------|----------------|----------------|----------------|
A|5-5-5-5-5-5-5-5-|4-4-4-3-3-3-3-3-|1-1-1-1-1-1-3-3-|0-0-0-0-0-0-0-0-|
E|----------------|----------------|----------------|----------------|

G|----------------|----------------|----------------|----------------|
D|----------------|----------------|----------------|----------------|
A|5-5-5-5-5-5-5-5-|4-4-4-3-3-3-3-3-|8-8-8-8-8-8-8-8-|8-8-8-8-8-8-8-8-|
E|----------------|----------------|----------------|----------------|

G|----------------|----------------|
D|----------------|----------------|
A|8-8-8-8-8-8-8-8-|8-8-8-8-8-8-8-8-|
E|----------------|----------------|

1:24
Verse

2:13
Chorus

2:38                             Bridge
G|----------------|----------------|----------------|----------------|
D|----------------|----------------|----------------|----------------|
A|0-0-0-0-0-0-0-0-|4-4-4-4-4-4-4-4-|----------------|----------------|
E|----------------|----------------|2-2-2-2-2-2-2-2-|2-2-2-2-2-2-2-2-|

G|----------------|----------------|----------------|----------------|
D|----------------|----------------|----------------|----------------|
A|0-0-0-0-0-0-0-0-|4-4-4-4-4-4-4-4-|6-6-6-6-6-6-6-6-|8-8-8-8-8-8-8-8-|
E|----------------|----------------|----------------|----------------|

2:57
Bass Rest

3:07
Chorus Note: Only play the middle section of the chorus

3:17
Chorus

3:37                             Outro
G|----------------|----------------|----------------|----------------|
D|----------------|----------------|----------------|----------------|
A|----------------|----------------|----------------|----------------|2x
E|8-8-8-8-8-8-8-8-|8-8-8-8-8-8-8-8-|6-6-6-6-6-6-6-6-|6-6-6-6-6-6-6-6-|

3:56
End on
G|-----|
D|-----|
A|-----|
E|4~~~-| Ring til 4:20
            
Submit corrections

comments powered by Disqus
↑ Back to top | Cold Bass for Black Sunday. Lyrics for acoustic guitar and electric guitar. Tablatures and chords are parodies/interpretations of the original songs. You may use it for private study, scholarship, research or language learning purposes only