>
 >
Back Home 1

Back Home 1 Guitar Tabs

Cold - Back Home 1 chords, tabs, tablatures, lyrics

Guitar lessons | Add/correct | Request | Top 50 tabs Artists:  A B C D E F G H I J K L M N O P Q R S T U V W X Y Z 0-9

Back Home 1 Guitar Tabs – Cold

CD, Sheet music, Poster

Do you like Back Home 1? Share with your friends now
TabsTabs v2
Tuning: C (C F Bb Eb G C) down 2 whole steps


Intro

C --7777777777777777--10x8--12x8--15x16-------0-------0-------0-------0-|
G ----------------------------------------------------------------------|
Eb--------------------------------------4---4---------------------------|
Bb--------------------------------------4--4----5---5---4---4---2---2---|
F --------------------------------------2-------5--5----4--4----2--2----|
C ----------------------------------------------3-------2-------0-------|


Verse (When she walked into the room...)

C ------------------------------|
G ------------------------------|
Eb---4--------------------------|
Bb---4---Let it ring out--------|
F ---2--------------------------|
C ------------------------------|

Guitar 1  (Don't you think you've had enough...)

C --7x14--10-7-10-7--7x14--9-7-9-7--7x14--10-7-10-7--7x16-|
G --------------------------------------------------------|
Eb--------------------------------------------------------|
Bb--------------------------------------------------------|
F --------------------------------------------------------|
C --------------------------------------------------------|

Guitar 2 (Same as Intro)

C ---------0-------0-------0-------0---------------------|
G -------------------------------------------------------|
Eb--4---4------------------------------------------------|
Bb--4--4----5---5---4---4---2---2------------------------|
F --2-------5--5----4--4----2--2-------------------------|
C ----------3-------2-------0----------------------------|

Chorus  (Figure out a Strum that you like best)

C ---------------------------------|
G ---------------------------------|
Eb--4-----7------------------------|
Bb--4-----7-----2------5------4----|    X2
F --2-x8--5-x8--2------5------4----|
C --------------0x-8---3-x4---2-x4-|

Intro x1 (Back Home....)

Verse x1 (Will the world still be the same....)

Chorus x2 (I won't turn around...)

Bridge  (All the way.....)

C ---------------------------------|
G ---------------------------------|
Eb---------------------------------|
Bb--5------2------9------7---------| X2
F --5------2------9------7---------|
C --3-x8---0-x8---7-x8---5-x8------|

(Don't you think you've had enough....)

C ----------------------------------------------------------|
G ----------------------------------------------------------|
Eb----------------------------------------------------------|
Bb--5------2------9------7------5------2------4------7------|
F --5------2------9------7------5------2------4------7------|
C --3-x5---0-x5---7-x8---5-x8---3-x5---0-x5---2-x8---5-x8---|

Chorus (Don't turn around...)

Guitar 1 (clean)

C ------------------------------------|
G ------------------------------------|
Eb--4-----7---------------------------|
Bb--4-----7-----2------5------4-------|
F --2-x8--5-x8--2------5------4-------|
C --------------0x-8---3-x4---2-x4----|

C ------------------------------------|
G ------------------------------------|
Eb--4-----7---------------------------|
Bb--4-----7-----2------5------4-------|
F --2-x8--5-x8--2------5------4-------|
C --------------0x-8---3-x4---2-x4----|
               p.m.................
Guitar 2

C ---------0-------0-------0-------0--|
G ------------------------------------|
Eb--4---4-----------------------------|
Bb--4--4----5---5---4---4---2---2-----|
F --2-------5--5----4--4----2--2------|
C ----------3-------2-------0---------|

C ---------0-------0------------------|
G ------------------------------------|
Eb--4---4-----------------------------|
Bb--4--4----5---5---------------------|
F --2-------5--5----------------------|
C ----------3-------------------------|

Chorus  (I'll take you all way....)

Guitar 1

C -------------------------------------------------------|
G -------------------------------------------------------|
Eb--4-----7----------------------------------------------|
Bb--4-----7-----2------5------4--------------------------|   X2
F --2-x8--5-x8--2------5------4--------------------------|
C --------------0-x8---3-x4---2-x4-----------------------|

C --7x14--10-7-10-7--7x14--9-7-9-7--7x14--10-7-10-7--7x16----|
G -----------------------------------------------------------|
Eb-----------------------------------------------------------|
Bb-----------------------------------------------------------|   X2
F -----------------------------------------------------------|
C -----------------------------------------------------------|

Guitar 2

C ---------------------------------|
G ---------------------------------|
Eb--4-----7------------------------|
Bb--4-----7-----2------5------4----|    X4
F --2-x8--5-x8--2------5------4----|
C --------------0x-8---3-x4---2-x4-|

End with this chord  (Home....)

C ------|
G ------|
Eb--4---|
Bb--4---|
F --2---|
C ------|

And thats about it. A great song from a great album. Any questions or comments please 





Comments


Popular Cold tabs & chords
Cure My Tragedy 1 Bass Tabs
Give Bass Tabs
Goodbye Cruel World Bass Tabs
Rain Song Bass Tabs
The Switch 1 Bass Tabs
Gone Away Tabs
No One 7 Tabs
Rain Song 1 Tabs
Suffocatebeginning Tabs
Witch Tabs


Song lyrics



↑ Back to top | Tablatures and chords are parodies/interpretations of the original songs. You may use it for private study, scholarship, research or language learning purposes only
© 2014 AZChords.com Contact us | Privacy policy | DMCA | Add/correct tabs | Request tabs | Top 50 tabs