>
 >
Another Pill

Another Pill Guitar Tabs

Cold - Another Pill chords, tabs, tablatures, lyrics

Guitar lessons | Add/correct | Request | Top 50 tabs Artists:  A B C D E F G H I J K L M N O P Q R S T U V W X Y Z 0-9

Another Pill Guitar Tabs – Cold

CD, Sheet music, Poster

Do you like Another Pill? Share with your friends now
Tabs
“Another Pill” - off of A Different Kind of Pain, by Cold
Tuning: C F Bb Eb G C  (low to high)
Two guitars

This is my first tab, some of the parts like the verse and the high part during the last 
are a little iffy, but the rest sounds correct to me.

Intro/Verse 1-Clean
|------------------------------|---------------------------------|
|----------0---------------0---|----------0---------------0------|
|------0-----0---------0-----0-|------0-----0---------0-----0----|
|----9---9-----------9---9-----|----0---0-----------4---4--------|
|--7-----------7-\-6-----------|-----------------/2------------2-|
|------------------------------|--3-----------3------------------|

                                     First and second endings.
|----------------------------------||-----------------------------||
|----------0---------------0-------||---------0-------------0-----||
|------0-----0-------0-------0-----||------0----0--------0----0---||
|---9----9---------9---9-----------||----9---9---------4---4------||
|-7------------7/9--------------9/-||-10-----------10\2--------2--||
|----------------------------------||-----------------------------||

  Third ending.
||---------------------------------------||
||-----------0---------------------------||
||-------0-----0-------(distorted)-------||
||-----9---9------------4-4-4-4--4-4-4-4-||
||--10-------------10\--2-2-2-2--2-2-2-2-||
||---------------------------------------||

Chorus (distorted)
|-----------------|-----------------|-----------------|-----------------|
|-----------------|-----------------|-----------------|-----------------|
|-5-5-5-5-5-5-5-5-|-----------------|-----------------|-7-7-7-7-7-7-7-7-|
|-5-5-5-5-5-5-5-5-|-5-5-5-5-9-9-9-9-|-2-2-2-2-2-2-2-2-|-7-7-7-7-7-7-7-7-|
|-3-3-3-3-3-3-3-3-|-5-5-5-5-9-9-9-9-|-2-2-2-2-2-2-2-2-|-5-5-5-5-5-5-5-5-|
|-----------------|-3-3-3-3-7-7-7-7-|-0-0-0-0-0-0-0-0-|-----------------|

Verse 2-Clean. Same except when the distortion comes in at the end...
|--------------------------|
|--------------------------|
|--------------------------|
|----------4-4-4-R-4-4-4-4-|
|--(10\)---2-2-2-R-2-2-2-2-|
|--------------------------|
There are some low strings on the second(cello) and third(cello, viola, violin, 
repeats of the verse, they seem to descend with the bass, doing C, B, Eb, G.

Chorus 2 is the same as the first, but goes into the bridge...

Bridge
|-----------------|------------------|------------------|
|-----------------|------------------|------------------|
|-----------------|-4-4-4-4-4-4-4-24-|-5-5-5-5-5-5-5-45-|
|-5-5-5-5-5-5-5-5-|-4-4-4-4-4-4-4-24-|-5-5-5-5-5-5-5-45-|
|-5-5-5-5-5-5-5-5-|-2-2-2-2-2-2-2-02-|-3-3-3-3-3-3-3-23-|
|-3-3-3-3-3-3-3-3-|------------------|------------------|
PM* * * * * * * *   * * * * * * * **   * * * * * * * **

|-----------------|-------------------|-----------------|
|-------------7/8-|-------------------|-----------------|
|-7-7-7-7-7-7-----|-------------------|--4-4-4-4-4-4-24-|
|-7-7-7-7-7-7-4/5-|---5-5-5-5-5-5-5-4-|R-4-4-4-4-4-4-24-|
|-5-5-5-5-5-5-----|---5-5-5-5-5-5-5-4-|--2-2-2-2-2-2-02-|
|-----------------|-7\3-3-3-3-3-3-3-2-|-----------------|
  * * * * * *
|------------------|-----------------|
|------------------|-----------------|
|-5-5-5-5-5-5-5-45-|-7-7-7-7-7-7-9-7-|
|-5-5-5-5-5-5-5-45-|-7-7-7-7-7-7-9-7-|
|-3-3-3-3-3-3-3-23-|-5-5-5-5-5-5-7-5-|
|------------------|-----------------|

Chorus 3 is the same as the others, but there is a second guitar playing this over it.
Guitar 2. Clean with chorus.
|------------------|------------------|-----------------|------------------|
|-----12------12---|-----12------12---|----12------12---|-----12------12---|
|---12--12--12--12-|---12--12--12--12-|--12--12--12--12-|---12--12--12--12-|
|-10------10-------|---------9--------|-----------------|-12------12-------|
|------------------|-10---------------|-----------------|------------------|
|------------------|------------------|-0-------0-------|------------------|

End, guitar 1
|-----------------|-----------------|----------------|
|-----------------|-----------------|----------------|
|-5-5-5-5-5-5-5-5-|-----------------|----------------|
|-5-5-5-5-5-5-5-5-|-5-5-5-5-9-9-9-9-|--2-------------|
|-3-3-3-3-3-3-3-3-|-5-5-5-5-9-9-9-9-|--2--let-ring---|
|-----------------|-3-3-3-3-7-7-7-7-|--0-------------|

End, guitar 2
|------------------|------------------|--------------------------------|
|-----12------12---|-----12------12---|------12---------12-------------|
|---12--12--12--12-|---12--12--12--12-|---12----12---12----12-let-ring-|
|-10------10-------|---------9--------|--------------------------------|
|------------------|-10---------------|--------------------------------|
|------------------|------------------|-0----------0-------------------|

There it is.





Comments


Popular Cold tabs & chords
Suffocate 2 Bass Tabs
Anti-Love Song 1 Tabs
Gone Away 1 Tabs
Just Got Wicked 1 Tabs
Just Got Wicked 2 Tabs
No One 3 Tabs
No One 4 Tabs
Rain Song Accustic Tabs
The Crossroads Tabs
Witch 1 Tabs


Song lyrics



↑ Back to top | Tablatures and chords are parodies/interpretations of the original songs. You may use it for private study, scholarship, research or language learning purposes only
© 2014 AZChords.com Contact us | Privacy policy | DMCA | Add/correct tabs | Request tabs | Top 50 tabs