>
 >
Alternate

Alternate Guitar Tabs

Cold - Alternate chords, tabs, tablatures, lyrics

Guitar lessons | Add/correct | Request | Top 50 tabs Artists:  A B C D E F G H I J K L M N O P Q R S T U V W X Y Z 0-9

Alternate Guitar Tabs – Cold

CD, Sheet music, Poster

Do you like Alternate? Share with your friends now
Tabs
2 steps down per usual Cold songs.

Song Construction--
Verse X5
Chorus X2
Verse X5
Chorus X2
***Second Chorus X 2
Solo X5
Chous X2
Second Chorus X2
Verse X1

***Note : the second chorus is the normal chorus twice, 
then the second chorus twice.

---9---9---10---10---10-----10---10-----9-9-9-9^------------------------------
--------------------------8----8------7---------------------------------------
-7---7---7----7----7----7-----------7-----------------------------------------
 Verses                                                                       

---------5-------------5-----------------3-------------3----------------------
-----7-----7-------7-----7-----------5-----5-------5-----5--------------------
---7---7-----7---7---7-----7---7---5---5-----5---5---5-----5------------------
-5-------------5-------------5---3-------------2------------------------------
 Chorus                                                                       

---------5-----7-----7-8-7----------------------------------------------------
-----7-----7-----7---------7---7----------------------------------------------
---7---7-----7-----7----------------------------------------------------------
-5---------------------------5------------------------------------------------
 Second Chorus                                                                

--------------------------------9-9-9-----------------------------------------
---7---7---9-9^-7--7-9-10-10-10-------10-10-9-9-9-12-12^-10-------------------
-0---0---0--------------------------------------------------------------------
 Solo





Comments


Popular Cold tabs & chords
Give 1 Bass Tabs
Its All Good Bass Tabs
Stupid Girl 2 Bass Tabs
Stupid Girl 6 Bass Tabs
Anatomy Of A Tidal Wave Chords
American Dream Intro Tabs
Don Belong Tabs
Gone Away Tabs
Kill The Music Industry Tabs
Stupid Girl 8 Tabs


Song lyrics



↑ Back to top | Tablatures and chords are parodies/interpretations of the original songs. You may use it for private study, scholarship, research or language learning purposes only
© 2014 AZChords.com Contact us | Privacy policy | DMCA | Add/correct tabs | Request tabs | Top 50 tabs