» » »

Colbie Caillat, Realize Tabs (ver.1)

Artists:  A B C D E F G H I J K L M N O P Q R S T U V W X Y Z # 

Realize Tabs (ver.1)

Colbie Caillat Tabs
 Rating:
4/5 (4 votes)
Realize lessons Tabs too difficult? Try these video lessons and learn fast
                Colbie Caillat – Realize


video of me playing/singing it:

Tuning: E  A  D  G  B  E (Standard)

x = mute
^ = hammer on or pull off
/ = slide

Verse:
-3----3----3----3----3-|
-3----3----3----3----3-|
-0----2----0----0----2-|
-0----0----0^2--2----0-|
-x----0----3----2----0-|
-3----2---------0----2-|

Verse 2 riff:
-3----------------------3-|
-3-----------------5-\3-3-|
-2-------0^2---2/4------0-|
-0---0^2-----0----------0-|
-0----------------------x-|
-2----------------------3-|

Pre-Chorus:
-3----3----3----3----3----3-|
-3----3----3----3----3----3-|
-0----0----2----0----0----2-|
-0^2--2----0----0^2--2----0-|
-3----2----0----3----2----0-|
------0----2---------0----2-|

Chorus/Turnaround/Outro:
-3----2----3----3-|
-3----3----3----3-|
-0----2----0----0-|
-0----0----2----2-|
-x----0----2----3-|
-3----2----0------|

Bridge:
-3----3----3----3----3--3--3--3--3---|
-3----3----3----3----3--3--3--3--3---|
-0----2----0----2----0--2--0--0--0---|
-2----0----0^2--0----2--0--0--0--0^2-|
-2----0----3----0----2--0--x--2--3---|
-0----2---------2----0--2--3---------|
            
Submit corrections

comments powered by Disqus
↑ Back to top | Colbie Caillat Tabs for Realize. Lyrics for acoustic guitar and electric guitar. Tablatures and chords are parodies/interpretations of the original songs. You may use it for private study, scholarship, research or language learning purposes only