» » »

Fallin For You Bass tabs (ver.1)

Artists:  A B C D E F G H I J K L M N O P Q R S T U V W X Y Z # 

Fallin For You Bass tabs (ver.1)

Colbie Caillat
Rating:
0/5 (0 votes)

Hard to play? Try these video lessons and learn fast.
                Hey fellow dudes,

this is my first tab I ever uploaded, so don't to be to hard on me :)!
Im not sure about the bridge though...

Colbie Caillat
Breakthrough

Standard Tuning


INTRO

G|----------------|
D|----------------|
A|----------------|
E|----------------|

VERSE
G|------------------------------------------------|
D|------------------------------------------------|
A|7-x-7-77-7-x-7-77-7----------------------   X 3-|
E|--------------------5-x-5-55-5-7-x-7-77-7-------|

PRE CHORUS
G|--------------------------------------------|
D|--------------------------------------------|
A|--------------------------------------------|
E|5-x-5-55-5-4-x-4-44-4-2-x-2-22-2-4-x-4-44-4-|

G|---------------------|
D|---------------------|
A|---------------4-444-|
E|5-x-5-55-5-4-4-------|

G|--------------------|
D|--------------------|
A|--------------------|
E|2-22-4-44-5-55-7-77-|

CHORUS

G|-------------------------------------|
D|-------------------------------------|
A|7777777777777777---------------- x 3-|
E|----------------5555555577777777-----|

VERSE

G|------------------------------------------------|
D|------------------------------------------------|
A|7-x-7-77-7-x-7-77-7----------------------   X 2-|
E|--------------------5-x-5-55-5-7-x-7-77-7-------|

PRE CHORUS
G|--------------------------------------------|
D|--------------------------------------------|
A|--------------------------------------------|
E|5-x-5-55-5-4-x-4-44-4-2-x-2-22-2-4-x-4-44-4-|

G|---------------------|
D|---------------------|
A|---------------4-444-|
E|5-x-5-55-5-4-4-------|

G|--------------------|
D|--------------------|
A|--------------------|
E|2-22-4-44-5-55-7-77-|

CHORUS

G|-------------------------------------|
D|-------------------------------------|
A|7777777777777777---------------- x 3-|
E|----------------5555555577777777-----|

BRIDGE


G|-----------------------|
D|--2-4--2-4-------------|
A|4-----4------2-4---2-4-|
E|-----------2-----2-----|


G|------------------------------|
D|------------------------------|
A|--5-7--5-7--4-6--7-9-----797--|
E|5----5----4-----7----7779---9-|

CHORUS

G|-------------------------------------|
D|-------------------------------------|
A|7777777777777777---------------- x 6-|
E|----------------5555555577777777-----|

OUTRO


G|------------------------|
D|------------------------|
A|7~-----7----------------|
E|--------------5~-----7~-|


G|--
D|--
A|7~
E|--
            
Hard to play? Try these video lessons and learn fast. | Correct




comments powered by Disqus
↑ Back to top | Tablatures and chords are parodies/interpretations of the original songs. You may use it for private study, scholarship, research or language learning purposes only