» » »

Colbie Caillat, Dreams Collide Tabs (ver.1)

Artists:  A B C D E F G H I J K L M N O P Q R S T U V W X Y Z # 

Dreams Collide Tabs (ver.1)

Colbie Caillat Tabs
 Rating:
4/5 (6 votes)
Dreams Collide lessons Tabs too difficult? Try these video lessons and learn fast
1
                -------------------------------------------------------------------------------
-------------------------------------------------------------------------------

Hey Everyone, I couldn't get the other version posted to work right
so I watched a video of her perform live. I think this one is closer to
what she plays but I'll let all of you be the judge. Hope you enjoy it.

Tuning: Standard [Capo 7]

Verse 1
Verse 2
e|---------------------------------------------------------------------------|
B|-----------------------3-3-------------------------------------------------|
G|-------0-------------0-----------0-------------0-0-------------------------|
D|---2-----2---2---2-----------0-----0---0---0-------0-----------------------|
A|-3---3-----3---3---3-------2---2-----2---2---2-----------------------------|
E|---------------------------------------------------------------------------|
                                                   I am 
                                                   So I'll
e|---------------------------------------------------------------------------|
B|-----------------------3-3-------------------------------------------------|
G|-------0-------------0-----------0-------------0-0-------------------------|
D|---2-----2---2---2-----------0-----0---0---0-------0-----------------------|
A|-3---3-----3---3---3-------2---2-----2---2---2-----------------------------|
E|---------------------------------------------------------------------------|
   stuck here            in a moment               and I'm
   put this              all on repeat             And I'll
e|---------------------------------------------------------------------------|
B|-----------------------3-3-------------------------------------------------|
G|-------0-------------0-----------0-------------0-0-------------------------|
D|---2-----2---2---2-----------0-----0---0---0-------0-----------------------|
A|-3---3-----3---3---3-------2---2-----2---2---2-----------------------------|
E|---------------------------------------------------------------------------|
   trying              to pretend                 so I'll
   make up             what comes next            Now I 
e|---------------------------------------------------------------------------|
B|-----------------------3-3-------------------------------------------------|
G|-------0-------------0-----------0-------------0-0-------------------------|
D|---2-----2---2---2-----------0-----0---0---0-------0-----------------------|
A|-3---3-----3---3---3-------2---2-----2---2---2-----------------------------|
E|---------------------------------------------------------------------------|
   play this          feeling  over  and  over  again
   lay here           daydreaming   on   your   chest
e|---------------------------------------------------------------------------|
B|-----------------------3-3-------------------------------------------------|
G|-------0-------------0-----------0-------------0-0-------------------------|
D|---2-----2---2---2-----------0-----0---0---0-------0-----------------------|
A|-3---3-----3---3---3-------2---2-----2---2---2-----------------------------|
E|---------------------------------------------------------------------------|

Second Time through go to Chorus

e|---------------------------------------------------------------------------|
B|-----------------------3-3-------------------------------------------------|
G|-------0-------------0-----------0-------------0-0-------------------------|
D|---2-----2---2---2-----------0-----0---0---0-------0-----------------------|
A|-3---3-----3---3---3-------2---2-----2---2---2-----------------------------|
E|---------------------------------------------------------------------------|
   I know              all this memory          Maybe  
e|---------------------------------------------------------------------------|
B|-----------------------3-3-------------------------------------------------|
G|-------0-------------0-----------0-------------0-0-------------------------|
D|---2-----2---2---2-----------0-----0---0---0-------0-----------------------|
A|-3---3-----3---3---3-------2---2-----2---2---2-----------------------------|
E|---------------------------------------------------------------------------|
   I should           awake instead               But I'm
e|---------------------------------------------------------------------------|
B|-----------------------3-3-------------------------------------------------|
G|-------0-------------0-----------0-------------0-0-------------------------|
D|---2-----2---2---2-----------0-----0---0---0-------0-----------------------|
A|-3---3-----3---3---3-------2---2-----2---2---2-----------------------------|
E|---------------------------------------------------------------------------|
  on my                way to go back            Inside
e|---------------------------------------------------------------------------|
B|-----------------------3-3-------------------------------------------------|
G|-------0-------------0-----------0-------------0-0-------------------------|
D|---2-----2---2---2-----------0-----0---0---0-------0-----------------------|
A|-3---3-----3---3---3-------2---2-----2---2---2-----------------------------|
E|---------------------------------------------------------------------------|
  my head


Chorus:
e|---------------------------------------------------------------------------|
B|-------5--------------5-----------7--------------7-------------------------|
G|---0-----0---0---0------0--0--0-----0---0---0-------0----------------------|
D|---------------------------------------------------------------------------|
A|-3---3-----3---3---3------5--5--5-----5---5---5----------------------------|
E|---------------------------------------------------------------------------|
   I close              my eyes
e|---------------------------------------------------------------------------|
B|-------5--------------5----------7--------------7--------------------------|
G|---0-----0---0---0------0--0--0-----0---0---0-----0------------------------|
D|---------------------------------------------------------------------------|
A|-3---3-----3---3---3------5--5--5-----5---5---5----------------------------|
E|---------------------------------------------------------------------------|
  and try                to hide
e|---------------------------------------------------------------------------|
B|-------5--------------5---------7-------------7----------------------------|
G|---0-----0---0---0------0--0--0-----0---0---0-----0--------0----------0-0--|
D|-------------------------------------------------------0-----0--0--0------0|
A|-3---3-----3---3---3------5--5--5-----5---5---5------2---2-----2--2--2-----|
E|---------------------------------------------------------------------------|
  but I wake           when these dreams          collide

Back to Verse 2 on first time through
To Bridge on second time through

Bridge:
G D E C
Strum 2x about an eighth note apart for each chord

                   G   G
And It all breaks down
    D  D
If I 
  E        E      C     C
Keep on wasting all my time
       G  G          D    D
All alone,    in my head
E         E                           C    C
Wish I'd never thought about it in the end

e|---------------------------------------------------------------------------|
B|---------------------------------------------------------------------------|
G|-------0-------------0-0---------------------------------------------------|
D|---0-----0---0---0-------0-------------------------------------------------|
A|-2---2-----2---2---2-------------------------------------------------------|
E|---------------------------------------------------------------------------|

e|---------------------------------------------------------------------------|
B|-----------------------3-3-------------------------------------------------|
G|-------0-------------0-----------0-------------0-0-------------------------|
D|---2-----2---2---2-----------0-----0---0---0-------0-----------------------|
A|-3---3-----3---3---3-------2---2-----2---2---2-----------------------------|
E|---------------------------------------------------------------------------|

e|---------------------------------------------------------------------------|
B|-----------------------3-3-------------------------------------------------|
G|-------0-------------0-----------------------------------------------------|
D|---2-----2---2---2---------------------------------------------------------|
A|-3---3-----3---3---3-------------------------------------------------------|
E|---------------------------------------------------------------------------|

Chorus 2:

e|---------------------------------------------------------------------------|
B|-------5--------------5---------7---------------7--------------------------|
G|---0-----0---0---0------0--0--0-----0---0---0------0-----------------------|
D|---------------------------------------------------------------------------|
A|-3---3-----3---3---3------5--5--5-----5---5---5----------------------------|
E|---------------------------------------------------------------------------|
   I close              my eyes
e|---------------------------------------------------------------------------|
B|-------5--------------5---------7---------------7--------------------------|
G|---0-----0---0---0------0--0--0-----0---0---0------0-----------------------|
D|---------------------------------------------------------------------------|
A|-3---3-----3---3---3------5--5--5-----5---5---5----------------------------|
E|---------------------------------------------------------------------------|
  and try              to hide
e|---------------------------------------------------------------------------|
B|-------5--------------5---------7-------------7--------------7------------7|
G|---0-----0---0---0------0--0--0-----0---0---0-----0---0---0------0--0--0---|
D|---------------------------------------------------------------------------|
A|-3---3-----3---3---3------5--5--5-----5---5---5-----5---5---5------5--5--5-|
E|---------------------------------------------------------------------------|
  but I wake           when     these     dreams          
e|---------------------------------------------------------------------------|
B|---------------------------------------------------------------------------|
G|-0---0---0----------0-------------0-0--------------------------------------|
D|----------------0-----0---0---0-------0------------------------------------|
A|---5---5---5--2---2-----2---2---2------------------------------------------|
E|---------------------------------------------------------------------------|
  collide

e|---------------------------------------------------------------------------|
B|-----------------------3-3-------------------------------------------------|
G|-------0-------------0-----------0-------------0-0-------------------------|
D|---2-----2---2---2-----------0-----0---0---0-------0-----------------------|
A|-3---3-----3---3---3-------2---2-----2---2---2-----------------------------|
E|---------------------------------------------------------------------------|

e|--------------------------------------------3-------------------------------|
B|-----------------------3-3------------------3-------------------------------|
G|-------0-------------0-----------0----------0-------------------------------|
D|---2-----2---2---2-----------0-----0---0----0-------------------------------|
A|-3---3-----3---3---3-------2---2-----2---2--2-------------------------------|
E|--------------------------------------------3-------------------------------|

| /  slide up
| \  slide down
| h  hammer-on
| p  pull-off
| ~  vibrato
| +  harmonic
| x  Mute note
===============================================================================
            
Submit corrections

comments powered by Disqus
↑ Back to top | Colbie Caillat Tabs for Dreams Collide. Lyrics for acoustic guitar and electric guitar. 1 Tablatures and chords are parodies/interpretations of the original songs. You may use it for private study, scholarship, research or language learning purposes only