>
 >
Bubbly 8

Bubbly 8 Guitar Tabs

Colbie Caillat - Bubbly 8 chords, tabs, tablatures, lyrics

Guitar lessons | Add/correct | Request | Top 50 tabs Artists:  A B C D E F G H I J K L M N O P Q R S T U V W X Y Z 0-9

Bubbly 8 Guitar Tabs – Colbie Caillat

CD, Sheet music, Poster

Do you like Bubbly 8? Share with your friends now
Bass TabsBass Tabs v2ChordsChords v2Chords v11Chords v12Chords v3Chords v4Chords v5Chords v6Chords v7Chords v8Chords v9Chords v10TabsTabs v2Tabs v3Tabs v4Tabs v5Tabs v6Tabs v7Tabs v8UkuleleUkulele v2
open D tuning..CAPO 7th fret
simple lang to mga kapatid.mas mahirap pa gumawa ng TAB amf


Tuning:open D tuning
intro.....|PLAY THIS THROUGHOUT SONG ,,,
D |-----------------------------------------------------------------]
A |----0---0--0--0--0--0--0--0--0--0--0--0--0--0--------------------]
D |----0---0--0--0--3--3--3--3--1--1--0--0--0--0--------------------]
F#|----4------4------0-----0-----0------4-----4---------------------]
A |----5------5------4-----4-----2------5-----5---------------------]
D |-----------------------------------------------------------------]           CHORUS...
chorus.....
||------------------------------------------------------]
||----------------0---------------0---------------0-----]
|------0-----0---------3-----3---------1-----1----------]
||----4---4-----4-----0---0-----0-----0---0-----0-------]
||--5---------------4---------------2-------------------]
||------------------------------------------------------]

bridge...

 |----------------2------------------2----------------------------------]
[-----------------0---------------------0-----------------0----------5--]
|-------0------0----------3-------3---------1-----1------------3--------]
||----4---4------4-----0----0-----------0------0------0-----0-----4-----]
||--5---------------4---------------2----------------5------------------]
||----------------------------------------------------------------------]
I've been awake for a while now

you've got me feelin like a child now

cause every time i see your bubbly face

i get the tinglies in a silly place

Chorus:
It starts to my toes

makes me crinkle my nose

where ever it goes i always know

that you make me smile

please stay for a while now

just take your time

where ever you go

Verse 2:

The rain is fallin on my window pane

but we are hidin in a safer place

under the covers stayin safe and warm

you give me feelins that i adore

Chorus:

It starts to my toes

makes me crinkle my nose

where ever it goes

i always know

that you make me smile

please stay for a while now

just take your time

where ever you go

Bridge:

What am i gonna say

when you make me feel this way

I just..mmm

Chorus:

It starts to my toes

makes me crinkle my nose

where ever it goes

i always know

that you make me smile

please stay for a while now

just take your time

where ever you go

Adlib: same as verse

Verse 3:

Iíve been asleep for a while now

You tucked me in just like a child now

Cause every time you hold me in your arms

Im comfortable enough to feel your warmth

Chorus:

It starts in my soul

And I lose all control

When you kiss my nose

The feelin shows

Cause you make me smile

Baby just take your time now

Holdin me tight

Ending: slower

Where ever, where ever, where ever you go

Where ever, where ever, where ever you go

Cause you make me smile even just for awhile

-end-

   mas maganda kung alternate flucking gagamitin nyo.....just me wafunggoy.(glen)





Comments


Popular Colbie Caillat tabs & chords
All Of You 1 Chords
Bubby Chords
Dream Life Chords
I Never Told You 6 Chords
Puzzle Pieces Chords
Realize 4 Chords
When The Darkness Comes 1 Chords
You Got Me 4 Chords
Breakthrough Ukulele
Midnight Bottle Ukulele


Song lyrics



↑ Back to top | Tablatures and chords are parodies/interpretations of the original songs. You may use it for private study, scholarship, research or language learning purposes only
© 2014 AZChords.com Contact us | Privacy policy | DMCA | Add/correct tabs | Request tabs | Top 50 tabs