» » »

Colbie Caillat, Bubbly Tabs (ver.3)

Artists:  A B C D E F G H I J K L M N O P Q R S T U V W X Y Z # 

Bubbly Tabs (ver.3)

Colbie Caillat Tabs
 Rating:
3.6/5 (7 votes)
Bubbly lessons Tabs too difficult? Try these video lessons and learn fast
                \"BUBBLY\" - Colbie Caillat

Sorry if these tabs are kinda confusing. Blame Colbie, lol! :) I am very sure that these 
correct. I had to watch her live performance and listen to the song about a million 
to get it just right. Enjoy!

TUNING:
e
A (tune this down 2 half-steps)
F# (tune this down 1 half-step)
D
A
D (tune this down 2 half-steps)

CAPO: 7th fret

Basic riff throughout song
e||---------------------|
A||--0-0--0-0--0-0--0-0-|
F#|--0-0--3-3--1-1--0-0-|
D||--4-4--0-0--0-0--4-4-|
A||--5-5--4-4--2-2--5-5-|
D||---------------------|

BRIDGE LINE
(What am I gonna say, when you make me...)
e||--x-x-x-x--x-x-x-x--x-x-x-x--x-x--x-x--x--|
A||--0-0-0-0--0-0-0-0--0-0-0-0--0-0--0-0--0--|
F#|--3-3-3-3--5-5-5-5--7-7-7-7--5-5--3-3--3--|
D||--0-0-0-0--4-4-4-4--0-0-0-0--0-0--0-0--0--|
A||--5-5-5-5--5-5-5-5--7-7-7-7--5-5--4-4--5--|
D||--5-5-5-5--5-5-5-5--7-7-7-7--5-5--4-4--5--|

ENDING LINE
e||----------2---------------2---------------0-----------------------|
A||----------------0---------------0---------------0---------5-------|
F#|------0-----0---------3-----3---------1-----1---------3-----3---3-|
D||----4---4-----4-----0---0-----0-----0---0-----0-----4---4-----4---|
A||--5---------------4---------------2---------------5---------------|
D||------------------------------------------------------------------|

PART ORDERS:
-Play riff x2 for intro
-play riff x2 for verse 1
-play riff x2 for chorus
-play riff x2 for verse 2
-play riff x2 for chorus
-play bridge line x1 for bridge
-play riff x2 for chorus
-play riff x2 for scatting solo
-play riff x2 for verse 3
-play riff x2 for chorus
-play ending line x4 for ending
            
Submit corrections

comments powered by Disqus
↑ Back to top | Colbie Caillat Tabs for Bubbly. Lyrics for acoustic guitar and electric guitar. Tablatures and chords are parodies/interpretations of the original songs. You may use it for private study, scholarship, research or language learning purposes only