» » »

Bubbly Bass tabs (ver.1)

Artists:  A B C D E F G H I J K L M N O P Q R S T U V W X Y Z # 

Bubbly Bass tabs (ver.1)

Colbie Caillat
Rating:
2/5 (3 votes)

Hard to play? Try these video lessons and learn fast.
                Colbie Caillat
Bass tab

This is my bass tab for Bubbly by Colbie Caillat. The bass line is fairly simple, and is 
repetive. Please disregard the spacing in between the numbers, as I normally do tab by 
However, you should be able to figure out the spacing.

The Chorus comes in after the first verse, followed by verse 2. This is where the tab starts;

	Chorus
G||--2------2--------2--|--1------1--------9--|--7------7--------7--|
D||---------------------|---------------------|---------------------|
A||---------------------|---------------------|---------------------|
E||---------------------|---------------------|---------------------|


---------------------|---------------------|------------------9--|
--7------7-----------|--7------7--------7--|--6------6-----------|
------------------7--|---------------------|---------------------|
---------------------|---------------------|---------------------|

--7------7--------7--|------------------4--|
---------------------|--7------7-----------|
---------------------|---------------------|
---------------------|---------------------|

Verse 2
--2------2-----------|
---------------------|
---------------------|
---------------------|

--1------1-----------|--7------7-----------|----------------------|
---------------------|---------------------|--7------7------------|
---------------------|---------------------|----------------7-----|
---------------------|---------------------|----------------------|

---------------------|---------------------|--7----7-------------|
--7----7-------------|--6----6-------------|---------------------|
---------------------|---------------------|---------------------|
---------------------|---------------------|---------------------|


-------------------|
--7----------------|
-------------------|
-------------------|

Chorus
Vamp

|--6---6---6---11-----------|
|-------------------11---11-|
|---------------------------|
|---------------------------|


----------------------------------|--9--9-----9--9--7--6--4-4-|
--12-12--------12---12---12-12-12-|--------9------------------|
----------12----------------------|---------------------------|
----------------------------------|---------------------------|


--4--6--6--6--7---------|-------------------|-------------------|
------------------------|--7----------------|--6----------------|
------------------------|-------------------|-------------------|
------------------------|-------------------|-------------------|

|-------------------|
|--7----------------|
|-------------------|
|-------------------|

Chorus

Vr. 3 (same as Vr. 3)

Chorus

Ending

|-------------------|-------------------|
|--7----------------|--6----------------|
|-------------------|-------------------|
|-------------------|-------------------|


--7----------------|-------------------||
-------------------|--7----------------||
-------------------|-------------------||
-------------------|-------------------||
            
Hard to play? Try these video lessons and learn fast. | Correct




comments powered by Disqus
↑ Back to top | Tablatures and chords are parodies/interpretations of the original songs. You may use it for private study, scholarship, research or language learning purposes only