» » »

Wake Up Tabs (ver.1)

Artists:  A B C D E F G H I J K L M N O P Q R S T U V W X Y Z # 

Wake Up Tabs (ver.1)

Coheed And Cambria
Rating:
0/5 (0 votes)

Hard to play? Try these video lessons and learn fast.
                 Eyes of Madness

Copyright © Columbia Records 2005
Verion 1.0 - 08/09/2005 - Original Tab


Alright, so this is a track I snagged from a 3 track promo that also
contained Welcome Home and The Willing Well II: From Fear Through The
Eyes of Madness. This is a beautiful ballad that even tops The Light
& The Glass in terms of serenity. Sadly, it is extremely hard to
hear the acoustic guitar in this song. The first Phase is pretty correct
I'm sure but Phase II is a bit iffy. So please contact me if you
have any suggestions. I also think there's some chords being played
it's a guitar or a mellotron (a keyboard type instrument).

If anybody has any question, comments, or corrections PLEASE send them to
anything you submit to me.

This tab is reserved for the following sites, they will be the only
ones to recieve updated version(s) as they become available. If you


.  - palm mute
/  - slide up and down to
b  - Bend
() - Natural harmonics
*  - Pinch harmonics
h  - Hammer
p  - Pull off
\"  - Tremolo Picking
x  - Mute
... - keep playing last chord at steady pace

Guitar I; Acoustic, Rhythm (Left) (Eb Ab Db Gb Bb Eb)
Guitar II; Electric Clean, Lead (Right) (Eb Ab Db Gb Bb Eb)

Phase I (Guitar I)
E|---3--------3------------0------------||
B|-----1--------1--------1--------1-3p1-||
G|-------0--------0----0--------0-------||
D|-------------------2--------0---------||
A|-3--------3---------------------------||
E|--------------------------------------||

Phase I (Guitar II, comes in at about :44)
E|----3---5---3---||
B|-1--------------||
G|----------------||
D|----------------||
A|----------------||
E|----------------||

Phase II (Guitar I)
E|------------------------3---3---3-3p0-----1---1---1-1p0-----1---1-----0---0-|
B|----------------------------------------------------------------------------|
G|--------0----0--------------------------2---2---2-------2-----------2---2---|
D|------0----2----2-0---------------------------------------3---3---3---------|
A|-0h2----------------3-----3---3---------------------------------------------|
E|----------------------------------------------------------------------------|

|-----------------------3---3---3-3p0----1---1---1-1p0-----|
|----------------------------------------------------------|
|-------0----0-------------------------2---2---2-----------|
|-----0----2----2-0--------------------------------------3-|
|-0h2---------------3-----3---3----------------------------|
|----------------------------------------------------------|

Phase II (Guitar II)
E|-8/10/8--------------------||
B|--------8/10/8--8/10/13/10-||
G|---------------------------||
D|---------------------------||
A|---------------------------||
E|---------------------------||
            
Hard to play? Try these video lessons and learn fast. | Correct




comments powered by Disqus
↑ Back to top | Tablatures and chords are parodies/interpretations of the original songs. You may use it for private study, scholarship, research or language learning purposes only