» » »

Werewolf Tabs (ver.1)

Artists:  A B C D E F G H I J K L M N O P Q R S T U V W X Y Z # 

Werewolf Tabs (ver.1)

Cocorosie
Rating:
5/5 (4 votes)

Hard to play? Try these video lessons and learn fast.
                


e|------11~~~----------------------|
B|-13~~~---------------------------|
G|-----------15~~-------12~~~------|  This is played through
D|----------------13-15------------|  the verses and the chorus.
A|---------------------------------|  (0:00-2:49, 3:19-4:44)
E|---------------------------------|



e|-----18---23*--22-20-18----------|
B|-20------------------------------|  This is being played through the
G|---------------------------------|  "Oh in a dream
D|---------------------------------|  My father came to me..." part.
A|---------------------------------|  (2:50-3:18)
E|---------------------------------|

*If you don't have frets enough for the 23 on the e-string simply bend it before you hit the string.
            
Hard to play? Try these video lessons and learn fast. | Correct




comments powered by Disqus
↑ Back to top | Tablatures and chords are parodies/interpretations of the original songs. You may use it for private study, scholarship, research or language learning purposes only