» » »

Tekno Love Song Tabs (ver.2)

Artists:  A B C D E F G H I J K L M N O P Q R S T U V W X Y Z # 

Tekno Love Song Tabs (ver.2)

Cocorosie
Rating:
0/5 (0 votes)

Hard to play? Try these video lessons and learn fast.
                Cocorosie - Tekno Love Song

Chords: D#, A#, fm, cm
(or Capo on 6: and Play A, E, hm, f#m)

Intro/Outro:


Guitar 1:

  D#        A#        fm              cm
E---6----6----------------------------------------|
H--8-8--8-8---6----6------9-------9------9-----9--|
G-8----8-----7-7--7-7---10-10---10-10---9-9---9-9-|       4X
D-----------8----8----10------10------10----10----|
A-------------------------------------------------|
E-------------------------------------------------|

Guitar 2:

E-11--11-10--10-11-13--13-11--11--11-10--10-11-13--13-11->
H-------------------------------------------------------->
G-------------------------------------------------------->
D-------------------------------------------------------->
A-------------------------------------------------------->
E-------------------------------------------------------->

-11-13-15--15-13--13-15-16--16-15--15-13--11--11-10--10-11-13--13-11-|
---------------------------------------------------------------------|
---------------------------------------------------------------------|
---------------------------------------------------------------------|
---------------------------------------------------------------------|
---------------------------------------------------------------------|

Verse/Chorus:

Guitar 1:

  D#                  A#                  fm
E---6----6----6----8------------------------------------------------------>
H--8-8--8-8--8-8--8-8---6----6----6----6------9-------9-------9-------9--->
G-8----8----8----8-----7-7--7-7--7-7--7-7---10-10---10-10---10-10---10-10->
D---------------------8----8----8----8----10------10------10------10------>
A------------------------------------------------------------------------->
E------------------------------------------------------------------------->
cm
-------------------------|
----9-----9-----9-----9--|
---9-9---9-9---9-9---9-9-|
-10----10----10----10----|
-------------------------|
-------------------------|

Guitar 2: in the second part of this song.

...I fell in love with a bad bad man Every since i met him I've been sad ...

E-11---------------------10----------13---------------------------------------|
H-----------------------------------------------------------------------------|
G-----------------------------------------------------------------------------|
D-----------------------------------------------------------------------------|
A-----------------------------------------------------------------------------|
E-----------------------------------------------------------------------------|
Lyrics:

I fell in love with a bad bad man
Every since i met him
I've been sad sad sad
I'm a jailbird to your music
A criminal in your prayer
I watch you when you sleep
Even when you're not there

Rainbows wept color all over the streets
When you went away maybe one day we'll meet

Lipstick i'd wear for one million years
Just to stop your eyes from falling down to you

(Guitar 2 comes in...play single notes on the high E string, just listen to the song
it´s really easy)

I fell in love with a bad bad man
Every since i met him
I've been sad sad sad
I'm a jailbird to your music
A criminal in your prayer
I watch you when you sleep
Even when you're not there

Rainbows wept color all over the streets
When you went away maybe one day we'll meet

(Guitar 1 plays Intro/Outro Guitar 2 plays single notes on high E String)
One day we'll meet
One day we'll meet
One day We'll meet

(Guitar 1 + Guitar 2 play Intro/Outro)
            
Hard to play? Try these video lessons and learn fast. | Correct




comments powered by Disqus
↑ Back to top | Tablatures and chords are parodies/interpretations of the original songs. You may use it for private study, scholarship, research or language learning purposes only