» » »

Ask Her To Dance Bass tabs (ver.1)

Artists:  A B C D E F G H I J K L M N O P Q R S T U V W X Y Z # 

Ask Her To Dance Bass tabs (ver.1)

Coconut Records
Rating:
0/5 (0 votes)

Hard to play? Try these video lessons and learn fast.
                +++++++++++++++++++++++++++++++++++++
| Coconut Records- Ask Her To Dance |
+++++++++++++++++++++++++++++++++++++


"Sun set on this town only hours ago..."

Tuning: EADG



Chorus
"Am I making sense?..."
1.
G|---------------------------------------------------------|
D|---------------------------------------------------------|
A|-------3-3~----------3-3~----------3-3~------------------|
E|-1~------------1~------------1~------------1~----1-1~----|

Verse
"Well the problem with this, see..."
2.
G|--------------------------------------------------------------|
D|-/3~----------------3~----0~----------------------------------|
A|--------3~----3~----------------0~----------0~----3~----------|
E|--------------------------------------3~----------------------|

Chorus
"Am I making sense?..."
3.
G|-----------------------------------------------------------|
D|-3~--------------------------------------------------------|
A|-------3-3~----------3-3~----------3-3~----------3-3~--0~--|
E|---------------1~------------1~------------1~--------------|

Bridge
4.
G|-----------------------------------------------------------|
D|-0~----------------------0~--------------------------------|
A|-------0~----------0~----------0~----------0~----3~--------|
E|-------------3~----------------------3~--------------------|

Chorus
"Am I making sense?..."
5.
G|---------------------------------------------------------------------------------------|
D|---------------------------------------------------------------------------------------|
A|-------3-3~----------3-3~----------3-3~----------3-3~----------3-3~----------3-3~--0~--|
E|-1~------------1~------------1~------------1~------------1~------------1~--------------|

Outro
6.
G|-------------------------------------------|
D|-0~----3~----------------3~----------------|
A|-------------1~----4~----------------------|
E|-------------------------------------------|

Please rate thanks!!!


Lyrics:

Ask her to dance and she’ll tell you a lie
Tell her she’s wrong and she’ll tell you you’re right
Sun set on this town only hours ago
Though it feels like this evening moving so slow

Am I making sense?

Well the problem with this see I don’t understand
You say you’ll come with me but you don’t take my hand
The sun set on this town only hours ago
Though it feels like this evening don’t want to come slow



+++++++++++++++++++++++++++++++++
| Raileff                       |
+++++++++++++++++++++++++++++++++
            
Hard to play? Try these video lessons and learn fast. | Correct




comments powered by Disqus
↑ Back to top | Tablatures and chords are parodies/interpretations of the original songs. You may use it for private study, scholarship, research or language learning purposes only