» » »

We're Coming Back Tabs (ver.1)

Artists:  A B C D E F G H I J K L M N O P Q R S T U V W X Y Z # 

We're Coming Back Tabs (ver.1)

Cock Sparrer
Rating:
0/5 (0 votes)

Tabs too difficult? Try these video lessons and learn fast.
                Band: Cock Sparrer

Intro:              
e--------------------|
B--------------------|
G--4-/5-5-5-5-5-5-5--| x4
D--4-/5-5-5-5-5-5-5--|
A--2-/3-3-3-3-3-3-3--|
E--------------------|

Riff 1:
e--12----12-12-10-8----8-/5---5-8-3-1-0--1-3--|
B---------------------------------------------|
G---------------------------------------------|
D---------------------------------------------|
A---------------------------------------------|
E---------------------------------------------|

Verse 1:
             C
We're coming back, we're coming back

We're coming back to you
      F                    C
We're never gonna go away again
     C
Hold on a little longer, try a little harder
           F                          C
'Til we're arm in arm together to the end

Chorus:
   G
So remember, out there somewhere
F                               C     G          C
You've got a friend, and you'll never walk alone again

Verse 2: (Guitar plays Riff 1 x2)
          C
Don't get worried, don't get scared

We're fighting to get there
F                           C
Never doubt we're gonna get through
            C
We're gonna run, we're gonna crawl, kick down every wall
   F                                   C    
It won't be long, we're coming back to you

Chorus x1

Solo:                                    x2
e------------------------------------------|------------------5-3--|
B-------5-5p3---3-------3-5--6-5-3--5-3----|------3-5-6--5-3-------|
G--5----------5---5---5-----------------5--|--5--------------------|
D------------------------------------------|-----------------------|
A------------------------------------------|-----------------------|
E------------------------------------------|-----------------------|

e------------------------8----------8--10-8---8----------8--10-8--|
B------3-5-6--5----6-5------10-8-10--------------10-8-10----------|
G--5------------5------7------------------------------------------|
D-----------------------------------------------------------------|
A-----------------------------------------------------------------|
E-----------------------------------------------------------------|

Verse 1 x1

Chorus x1

Riff 1 x2 to fade
            
Tabs too difficult? Try these video lessons and learn fast.




comments powered by Disqus
↑ Back to top | Tablatures and chords are parodies/interpretations of the original songs. You may use it for private study, scholarship, research or language learning purposes only