» » »

Cock Sparrer, Because You're Young Tabs (ver.1)

Artists:  A B C D E F G H I J K L M N O P Q R S T U V W X Y Z # 

Because You're Young Tabs (ver.1)

Cock Sparrer Tabs
Rating:
0/5 (0 votes)
Because You're Young lessons Tabs too difficult? Try these video lessons and learn fast
                       Cock Sparrer
-- Because You're Young --

Another great song from this old English oi! punk band.

Standard E tuning

Intro: C -- C


Verese1: C -- C -- F --- G (2x)

Because you're young, sharp as a knife 
You need that buzz to come alive 
Out on the edge, out on the town 
You ain't got time to settle down 

Chorus1: F -- G -- C - E - Am 
         F -- G -- C -- C

You're always sure, you're always right 
You see it all in black and white
You never listen to any one, because you're young

Verese2: C -- C -- F --- G (2x)

Because you're young, you're torn between
A world of hate and a world of dreams
So much to lose, so much to gain
So much to fight for, so much to change

Chorus2: F -- G -- C - E - Am 
         F -- G -- C -- C

You don't look back; you don't look down
You gotta turn every thing a round
You live your life like a loaded gun
Because you're young 

Bridge1: F -- G (2x)
         F -- C -- G -- G
        

Stop talking back, get off the phone
You're late again, you missed the last bus home
This ain't the way you wanna live
I know something's got to give

Chorus3: F -- G -- C - E - Am
         F -- G -- C -- C

You're always sure, you're always right
You see it all in black and white
You never listen to any one
Because you're young

SOLO: C -- C -- F --- G (2x)
      F -- G -- C - E - Am
      F -- G -- C -- C

e|------------------------------------------|
H|--------------------10-8------8b10r8-7-8~-|
G|-7b9r7p5h7p5--5-7\9------9\10-------------|
D|------------------------------------------|
A|---- (2x)  -------------------------------|
E|------------------------------------------|

e|------------------------------------------|
H|-8-6-5-6~~--5-6-10-8~~---------5-5-8-8----|
G|------------------------9-10-9----------5-|
D|------------------------------------------|
A|------------------------------------------|
E|------------------------------------------|

e|------------------------------------------|
H|------------------------------------------|
G|-7-9-7-10~~-10-9-9-7~~--7b9r7p5h7p5-------|
D|------------------------------------------|
A|------------------------------------------|
E|------------------------------------------|



Bridge2: F -- G (2x)
         F -- C -- G -- G
        

Stop talking back, get off the phone
You're late again, you missed the last bus home
This ain't the way you wanna live
I know something's got to give

Chorus4: F -- G -- C - E - Am
         F -- G -- C -- C

You don't look back; you don't look down
You gotta turn every thing a round
You live your life like a loaded gun
Because you're young 

F -- G -- C -- C

You never listen to any one
Because you're young
            

comments powered by Disqus
↑ Back to top | Cock Sparrer Tabs for Because You're Young. Lyrics for acoustic guitar and electric guitar. Tablatures and chords are parodies/interpretations of the original songs. You may use it for private study, scholarship, research or language learning purposes only