>
 >
With A Little Help From My Friends

With A Little Help From My Friends Bass Tabs

Cocker Joe - With A Little Help From My Friends chords, tabs, tablatures, lyrics

Guitar lessons | Add/correct | Request | Top 50 tabs Artists:  A B C D E F G H I J K L M N O P Q R S T U V W X Y Z 0-9

With A Little Help From My Friends Bass Tabs – Cocker Joe

CD, Sheet music, Poster

Do you like With A Little Help From My Friends? Share with your friends now
Bass Tabs
joe cocker_with a little help from my friends

TablEdited by Jan Bjorklund   
You are welcome to request for tabs!
Fingering and positions as suggested by TablEdit, please use common sense.


TablEdited by Jan Bjorklund
Tuning : E A D G 	Time Signature: 3/4

  |               |               |                 
|--------------------------------------------------|
|--------------------------------------------------|
|-0---------------0--------------------------------|
|--------------------------------------------------|

  |               |               |                 
||-------------------------------------------------|
|*-------------------------------------------------|
|*0------------------------------------------------|
||----------------------------------------0--------|

  |               |               |                 
|-------------------------------------------------||
|-------------------------------------------------||
|-0-----------------------------------------------||
|-----------------------------------------0-------||

1|               |               |                 
|--------------------------------------------------|
|--------------------------------------------------|
|-0------------------------------------------------|
|-----------------------------------------0--------|

  |               |               |                 
|-------------------------------------------------||
|-------------------------------------------------*|
|-0---------------0-------------------------------*|
|-----------------------------------------0-------||

2|               |               |                 
|--------------------------------------------------|
|--------------------------------------------------|
|-0---------------0--------------------------------|
|-----------------------------------------0--------|

  |               |               |                 
|--------------------------------------------------|
|--------------------------------------------------|
|-0------------------------------------------------|
|-----------------------------------------0--------|

  |               |               |                 
|-2------------------------------------------------|
|---------------------------------2----------------|
|--------------------------------------------------|
|--------------------------------------------------|

  |               |               |                 
|-2------------------------------------------------|
|---------------------------------2----------------|
|--------------------------------------------------|
|--------------------------------------------------|

  |               |               |                 
|-2------------------------------------------------|
|---------------------------------2----------------|
|--------------------------------------------------|
|--------------------------------------------------|

  |               |               |                 
|-2------------------------------------------------|
|---------------------------------2----------------|
|--------------------------------------------------|
|--------------------------------------------------|

  |               |               |                 
|-2------------------------------------------------|
|---------------------------------2----------------|
|--------------------------------------------------|
|--------------------------------------------------|

  |               |               |                 
|-2------------------------------------------------|
|---------------------------------2----------------|
|--------------------------------------------------|
|--------------------------------------------------|

  |               |               |                 
|-2------------------------------------------------|
|---------------------------------2----------------|
|--------------------------------------------------|
|--------------------------------------------------|

  |               |               |                 
|-2------------------------------------------------|
|---------------------------------2----------------|
|--------------------------------------------------|
|--------------------------------------------------|

  |               |               |                 
||2------------------------------------------------|
|*-------------------------------------------------|
|*-------------------------------------------------|
||-------------------------------------------------|

  |               |               |                 
|-1------------------------------------------------|
|--------------------------------------------------|
|--------------------------------------------------|
|--------------------------------------------------|

  |               |               |                 
|--------------------------------------------------|
|-4------------------------------------------------|
|--------------------------------------------------|
|--------------------------------------------------|

  |               |               |                 
|--------------------------------------------------|
|---------------------------------0----------------|
|-2---------------4--------------------------------|
|--------------------------------------------------|

  |               |               |                 
|--------------------------------------------------|
|-2------------------------------------------------|
|--------------------------------------------------|
|--------------------------------------------------|

  |               |               |                 
|--------------------------------------------------|
|--------------------------------------------------|
|--------------------------------------------------|
|-0-------------------------------2----------------|

  |               |               |                 
|--------------------------------------------------|
|--------------------------------------------------|
|-0------------------------------------------------|
|--------------------------------------------------|

  |               |               |                 
|--------------------------------------------------|
|-0------------------------------------------------|
|-----------------4---------------2----------------|
|--------------------------------------------------|

  |               |               |                 
|--------------------------------------------------|
|--------------------------------------------------|
|-0------------------------------------------------|
|--------------------------------------------------|

  |               |               |                 
|-1------------------------------------------------|
|--------------------------------------------------|
|--------------------------------------------------|
|--------------------------------------------------|

  |               |               |                 
|--------------------------------------------------|
|--------------------------------------------------|
|--------------------------------------------------|
|-2------------------------------------------------|

  |               |               |                 
|--------------------------------------------------|
|---------------------------------0----------------|
|-2---------------4--------------------------------|
|--------------------------------------------------|

  |               |               |                 
|--------------------------------------------------|
|-2------------------------------------------------|
|--------------------------------------------------|
|--------------------------------------------------|

  |               |               |                 
|--------------------------------------------------|
|--------------------------------------------------|
|--------------------------------------------------|
|-0------------------------------------------------|

  |               |               |                 
|--------------------------------------------------|
|--------------------------------------------------|
|-0------------------------------------------------|
|--------------------------------------------------|

  |               |               |                 
|--------------------------------------------------|
|--------------------------------------------------|
|--------------------------------------------------|
|---------------------------------2----------------|

  |               |               |                 
||-------------------------------------------------|
|*-------------------------------------------------|
|*-------------------------------------------------|
||3------------------------------------------------|

  |               |               |                 
|--------------------------------------------------|
|-0------------------------------------------------|
|--------------------------------------------------|
|--------------------------------------------------|

  |               |               |                 
|--------------------------------------------------|
|--------------------------------------------------|
|-0------------------------------------------------|
|--------------------------------------------------|

  |               |               |                 
|-2------------------------------------------------|
|--------------------------------------------------|
|--------------------------------------------------|
|-----------------0---------------2----------------|

  |               |               |                 
|--------------------------------------------------|
|--------------------------------------------------|
|--------------------------------------------------|
|-3------------------------------------------------|

  |               |               |                 
|--------------------------------------------------|
|-0------------------------------------------------|
|--------------------------------------------------|
|--------------------------------------------------|

  |               |               |                 
|--------------------------------------------------|
|--------------------------------------------------|
|-0------------------------------------------------|
|--------------------------------------------------|

  |               |               |                 
|-6---------------4-------------------------------||
|---------------------------------7---------------*|
|-------------------------------------------------*|
|-------------------------------------------------||

  |               |               |                 
|-0------------------------------------------------|
|--------------------------------------------------|
|--------------------------------------------------|
|-----------------3--------------------------------|

  |               |               |                 
|--------------------------------------------------|
|-0---------------------------------------2--------|
|--------------------------------------------------|
|--------------------------------------------------|

  |               |               |                 
|--------------------------------------------------|
|--------------------------------------------------|
|-0------------------------------------------------|
|--------------------------------------------------|

  |               |               |                 
|--------------------------------------------------|
|--------------------------------------------------|
|--------------------------------------------------|
|-----------------0---------------2----------------|

  |               |               |                 
|--------------------------------------------------|
|--------------------------------------------------|
|--------------------------------------------------|
|-3------------------------------------------------|

  |               |               |                 
|-------------------------------------------------||
|-0-----------------------------------------------||
|-------------------------------------------------||
|-------------------------------------------------||

1|               |               |                 
|--------------------------------------------------|
|--------------------------------------------------|
|-0------------------------------------------------|
|--------------------------------------------------|

  |               |               |                 
|-------------------------------------------------||
|---------------------------------2---------------*|
|-------------------------------------------------*|
|-------------------------------------------------||

2|               |               |                 
|--------------------------------------------------|
|--------------------------------------------------|
|-0------------------------------------------------|
|--------------------------------------------------|

  |               |               |                 
||-------------------------------------------------|
|*-------------------------------------------------|
|*-------------------------------------------------|
||-------------------------------------------------|

  |               |               |                 
|-------------------------------------------------||
|-------------------------------------------------*|
|-------------------------------------------------*|
|-------------------------------------------------||

  |               |               |                 
|--------------------------------------------------|
|---------------------------------2----------------|
|-0---------------4--------------------------------|
|--------------------------------------------------|

  |               |               |                 
|--------------------------------------------------|
|-4------------------------------------------------|
|--------------------------------------------------|
|--------------------------------------------------|

  |               |               |                 
|--------------------------------------------------|
|--------------------------------------------------|
|--------------------------------------------------|
|-2------------------------------------------------|

  |               |               |                 
|--------------------------------------------------|
|-2-----------4------------------------------------|
|--------------------------------------------------|
|--------------------------------------------------|

  |               |               |                 
|--------------------------------------------------|
|--------------------------------------------------|
|--------------------------------------------------|
|-2-------------------------------2----------------|

  |               |               |                 
|--------------------------------------------------|
|--------------------------------------------------|
|-0------------------------------------------------|
|--------------------------------------------------|

  |               |               |                 
|--------------------------------------------------|
|--------------------------------------------------|
|--------------------------------------------------|
|--------------------------------------------------|

  |               |               |                 
|--------------------------------------------------|
|--------------------------------------------------|
|--------------------------------------------------|
|--------------------------------------------------|

  |               |               |                 
|--------------------------------------------------|
|---------------------------------2----------------|
|-0---------------4--------------------------------|
|--------------------------------------------------|

  |               |               |                 
|--------------------------------------------------|
|--------------------------------------------------|
|-----------------------------------------4--------|
|-2------------------------------------------------|

  |               |               |                 
|--------------------------------------------------|
|-4------------------------------------------------|
|--------------------------------------------------|
|--------------------------------------------------|

  |               |               |                 
|--------------------------------------------------|
|--------------------------------------------------|
|--------------------------------------------------|
|-0---------------2--------------------------------|

  |               |               |                 
|--------------------------------------------------|
|-4------------------------------------------------|
|---------------------------------4----------------|
|--------------------------------------------------|

  |               |               |                 
|--------------------------------------------------|
|-2------------------------------------------------|
|--------------------------------------------------|
|--------------------------------------------------|

  |               |               |                 
|--------------------------------------------------|
|--------------------------------------------------|
|--------------------------------------------------|
|-0------------------------------------------------|

  |               |               |                 
|--------------------------------------------------|
|-2------------------------------------------------|
|--------------------------------------------------|
|--------------------------------------------------|

  |               |               |                 
|--------------------------------------------------|
|--------------------------------------------------|
|--------------------------------------------------|
|-0------------------------------------------------|

  |               |               |                 
|--------------------------------------------------|
|-2------------------------------------------------|
|--------------------------------------------------|
|--------------------------------------------------|

  |               |               |                 
|--------------------------------------------------|
|--------------------------------------------------|
|--------------------------------------------------|
|-0------------------------------------------------|

  |               |               |                 
|--------------------------------------------------|
|-2------------------------------------------------|
|--------------------------------------------------|
|--------------------------------------------------|

  |               |               |                 
|--------------------------------------------------|
|-------------------------------------0------------|
|---------------------------------4----------------|
|-0------------------------------------------------|

  |               |               |                 
|--------------------------------------------------|
|-2------------------------------------------------|
|--------------------------------------------------|
|---------------------------------0----------------|

  |               |               |                 
|--------------------------------------------------|
|--------------------------------------------------|
|--------------------------------------------------|
|-3------------------------------------------------|

  |               |               |                 
|--------------------------------------------------|
|--------------------------------------------------|
|--------------------------------------------------|
|--------------------------------------------------|

  |               |               |                 
|--------------------------------------------------|
|-0------------------------------------------------|
|--------------------------------------------------|
|--------------------------------------------------|





Comments


Popular Cocker Joe tabs & chords
Marjorine Bass Tabs
Bird On A Wire Chords
Guilty Chords
Hitchcock Railway Chords
Night Calls Chords
Unchain My Heart Chords
Night Calls Tabs
Please Tabs
Please No More Tabs
With A Little Help Tabs


Song lyrics



↑ Back to top | Tablatures and chords are parodies/interpretations of the original songs. You may use it for private study, scholarship, research or language learning purposes only
© 2014 AZChords.com Contact us | Privacy policy | DMCA | Add/correct tabs | Request tabs | Top 50 tabs