» » »

Cocker Joe, Summer In The City Bass tabs (ver.1)

Artists:  A B C D E F G H I J K L M N O P Q R S T U V W X Y Z # 

Summer In The City Bass tabs (ver.1)

Cocker Joe Tabs
 Rating:
4/5 (4 votes)
Summer In The City lessons Tabs too difficult? Try these video lessons and learn fast
1
                Joe Cocker/Summer In The City

Basstab by Jan Bjorklund, Finland; 
You are welcome to request for basstabs or standard notation!
Bienvenidos a pedirme transcripciones para el bajo!

TablEdited by Jan Bjorklund
Tuning : E A D G 	Time Signature: 4/4

 |       |       |       |        |       |       |       |        
|--------------------------------|--------------------------------|
|--------------------    Four bars intro    ----------------------|
|--------------------------------|--------------------------------|
|--------------------------------|--------------------------------|

 |       |       |       |        |       |       |       |        
|--------------------------------|--------------------------------|
|-------------------------- without bass -------------------------|
|--------------------------------|--------------------------------|
|--------------------------------|--------------------------------|

 |       |       |       |        |       |       |       |        
|--------------------------------|--------------------------------|
|--------------------------------|--------------------------------|
|5-------------------------------|--------------------------------|
|------------------------8-------|6-----------------------5-------|

 |       |       |       |        |       |       |       |        
|--------------------------------|--------------------------------|
|--------------------------------|--------------------------------|
|5-------------------------------|--------------------------------|
|------------------------8-------|6-----------------------5-------|

 |       |       |       |        |       |       |       |        
|--------------------------------|--------------------------------|
|--------------------------------|--------------------------------|
|5-----------5-5-----------------|--------------------------------|
|----------------8-----------8-8-|7-----------7-7-6-------5-------|

 |       |       |       |        |       |       |       |        
|--------------------------------|--------------------------------|
|--------------------------------|--------------------------------|
|5-----------5-5-----------------|----------------------------5-7-|
|----------------8-----------8-8-|7-----------7-7-6---------------|

 |       |       |       |        |       |       |       |        
|--------------------------------|--------------------------------|
|7-----------7---5-----------5---|3-----------3---4-------4-----0-|
|--------------------------------|--------------------------------|
|--------------------------------|--------------------------------|

 |       |        |       |       |       |        
|----------------|--------------------------------|
|----------------|------------------------2---5---|
|----------------|--------2---5-------3-----------|
|2---2---2-------|----3-3-------------------------|

 |       |       |       |        |       |       |       |        
|--------------------------------|--------------------------------|
|------------------------2---5---|------------------------2---5---|
|--------2---5---------3---------|--------2---5-------3-----------|
|----3-3-------------------------|----3-3-------------------------|

 |       |       |       |        |       |       |       |        
|--------------------------------|--------------------------------|
|------------------------2---5---|--------2-----0-------------2---|
|--------2---5-------3-----------|----2-----------0-------4-------|
|----3---------------------------|--------------------------------|

 |       |       |       |        |       |       |       |        
|--------------------------------|--------------------------------|
|--------2-----0-------------2---|--------2-----0-------------2---|
|----2-----------0-------4-------|----2-----------0-------4-------|
|--------------------------------|--------------------------------|

 |       |       |       |        |       |       |       |        
|--------------------------------|--------------------------------|
|--------2-----0-------------2---|--------------------------------|
|----2-----------0-----0-4-------|5-------------------------------|
|--------------------------------|------------------------8-------|

 |       |       |       |        |       |       |       |        
|--------------------------------|--------------------------------|
|--------------------------------|--------------------------------|
|--------------------------------|5-----------5-5-----------------|
|6-----------------------5-------|----------------8-----------8-8-|

 |       |       |       |        |       |       |       |        
|--------------------------------|--------------------------------|
|--------------------------------|--------------------------------|
|--------------------------------|5-----------5-5-----------------|
|7-----------7-7-6-------5-------|----------------8-----------8-8-|

 |       |       |       |        |       |       |       |        
|--------------------------------|--------------------------------|
|--------------------------------|7-----------7---5-----------5---|
|----------------------------5-7-|--------------------------------|
|7-----------7-7-6---------------|--------------------------------|

 |       |       |       |        |       |        
|--------------------------------|----------------|
|3---3---3-------4-------4-------|----------------|
|--------------------------------|----------------|
|--------------------------------|2---2---2-2-2---|

 |       |       |       |        |       |       |       |        
|--------------------------------|--------------------------------|
|------------------------2---5---|------------------------2---5---|
|--------2---5-------3-----------|--------2---5-------3-----------|
|----3---------------------------|----3-3-------------------------|

 |       |       |       |        |       |       |       |        
|--------------------------------|--------------------------------|
|------------------------2---5---|------------------------2---5-7-|
|--------2---5---------3---------|--------2---5-------3-----------|
|----3---------------------------|----3---------------------------|

 |       |       |       |        |       |       |       |        
|--------------------------------|--------------------------------|
|2-------2-------------------2---|--------2-------------------2---|
|----2-----------0-----0-4-------|----2-----------0-----0-4-------|
|--------------------------------|--------------------------------|

 |       |       |       |        |       |       |       |        
|--------------------------------|--------------------------------|
|--------2-------------------2---|--------2-------------------2---|
|----2-----------0-------4-------|----2-----------0-----0-4-------|
|--------------------------------|--------------------------------|

 |       |       |       |        |       |       |       |        
|--------------------------------|--------------------------------|
|--------------------------------|--------------------------------|
|5-------------------------------|--------------------------------|
|------------------------8-------|6-----------------------5-------|

 |       |       |       |        |       |       |       |        
|--------------------------------|--------------------------------|
|--------------------------------|--------------------------------|
|5-------------------------------|--------------------------------|
|------------------------8-------|6-----------------------5---5-0-|

 |       |       |       |        |       |       |       |        
|--------------------------------|--------------------------------|
|5-------------------------------|--------------------------------|
|------------5-7-8-----------8-8-|7---------------6-------5-------|
|--------------------------------|--------------------------------|

 |       |       |       |        |       |       |       |        
|--------------------------------|--------------------------------|
|5-------------------------------|--------------------------------|
|------------5-7-8---------------|7-----------7-7-6---------------|
|--------------------------------|----------------------------6-6-|

 |       |       |       |        |       |       |       |        
|--------------------------------|--------------------------------|
|--------------------------------|--------------------------------|
|5-------------------------------|--------------------------------|
|------------6-6-8-----------8---|7-----------7-7-6-------5-------|

 |       |       |       |        |       |       |       |        
|--------------------------------|--------------------------------|
|--------------------------------|--------------------------------|
|5-------------5-----------------|----------------------------5-7-|
|------------5---8-----------8-8-|7-----------7-7-6---------------|

 |       |       |       |        |       |       |       |        
|--------------------------------|--------------------------------|
|7---7---7---7---5---5---5---5-5-|3---3---3---3---4---4---4---4/0-|
|--------------------------------|--------------------------------|
|--------------------------------|--------------------------------|

 |       |        |       |       |       |        
|----------------|--------------------------------|
|4---4---4---4-4-|------------------------2---5---|
|----------------|--------2---5-------3-----------|
|----------------|----3-3-------------------------|

 |       |       |       |        |       |       |       |        
|--------------------------------|--------------------------------|
|------------------------2---5---|------------------------2---5---|
|--------2---5-------3-3---------|--------2---5-------3-----------|
|----3-3-------------------------|------3-------------------------|

 |       |       |       |        |       |       |       |        
|--------------------------------|--------------------------------|
|------------------------2---5---|2-2-----2-------------------2---|
|--------2---5---------3---------|----2-----------0-----0-4-------|
|------3-------------------------|--------------------------------|

 |       |       |       |        |       |       |       |        
|--------------------------------|--------------------------------|
|--------2-------------------2---|--------2-------------------2---|
|----2-----------0-----0-4-------|----2-----------0-------4-------|
|--------------------------------|--------------------------------|

 |       |       |       |        |       |       |       |        
|--------------------------------|--------------------------------|
|--------2-------------------2---|--------4-------------------4---|
|----2-----------0-----0-4-------|----4-------------------6-------|
|--------------------------------|----------------7---------------|

 |       |       |       |        |       |       |       |        
|--------------------------------|--------------------------------|
|--------4-----4-------------4---|--------4---4-4-------------4---|
|----4-------------------6-------|----4-------------------6-------|
|----------------7-----7---------|----------------7-7-------------|

 |       |       |       |        |       |       |       |        
|--------------------------------|--------------------------------|
|--------4-------------------4---|2-------2---2-2-0-----------0-0-|
|----4-------4-----------6-------|--------------------------------|
|----------------7-----7---------|--------------------------------|

 |       |       |       |        |       |       |       |        
|--------------------------------|--------------------------------|
|------------2-------------------|2---------------0-------------0-|
|4-------------4-3-------2-------|------------2-2-------------2---|
|--------------------------------|--------------------------------|

 |       |       |       |        |       |       |       |        
|--------------------------------|--------------------------------|
|------------2-------------------|2-------------2-0---------------|
|4-------------4-3-------2-------|------------2---------------2-2-|
|--------------------------------|--------------------------------|

 |       |       |       |        |       |       |       |        
|--------------------------------|--------------------------------|
|------------2-------------------|2---------------0-----------4-0-|
|4-------------4-3-------2-------|------------2-4-----------------|
|--------------------------------|--------------------------------|

 |       |       |       |        |       |       |       |        
|--------------------------------|--------------------------------|
|------------2-------------------|2-----------2---0-----------4-0-|
|4-------------4-3-------2-------|--------------4-----------------|
|--------------------------------|--------------------------------|

 |       |       |       |        |       |       |       |        
|--------------------------------|--------------------------------|
|------------2-------------------|2---------------0-----------4-0-|
|4-------------4-3-------2-------|------------2-4-----------------|
|--------------------------------|--------------------------------|

 |       |       |       |        |       |       |       |        
|--------------------------------|--------------------------------|
|------------2-------------------|2---------------0-----------4-0-|
|4-------------4-3-------2-------|------------2-4-----------------|
|--------------------------------|--------------------------------|

 |       |       |       |        |       |       |       |        
|--------------------------------|--------------------------------|
|------------2-------------------|2-------------2-0-----------0-0-|
|4-------------4-3-------2-------|------------2-------------------|
|--------------------------------|--------------------------------|

 |       |       |       |        Fading  |       |       |        
|--------------------------------|--------------------------------|
|------------2-------------------|2-------------2-0-----------4-0-|
|4-------------4-3-------2-------|------------2-------------------|
|--------------------------------|--------------------------------|

 |       |       |       |        
|--------------------------------|
|------------2-------------------|
|4-------------4-3-------2-------|
|--------------------------------|
            
Submit corrections

comments powered by Disqus
↑ Back to top | Cocker Joe Bass for Summer In The City. Lyrics for acoustic guitar and electric guitar. 1 Tablatures and chords are parodies/interpretations of the original songs. You may use it for private study, scholarship, research or language learning purposes only