» » »

Cocker Joe, Night Calls Bass tabs (ver.1)

Artists:  A B C D E F G H I J K L M N O P Q R S T U V W X Y Z # 

Night Calls Bass tabs (ver.1)

Cocker Joe Tabs
 Rating:
4/5 (4 votes)
Night Calls lessons Tabs too difficult? Try these video lessons and learn fast
1
                cocker_joe/night_calls.btab

Basstab by Jan Bjorklund, Finland; 
You are welcome to request for basstabs!
Bienvenidos a pedirme transcripciones para el bajo!


TablEdited by Jan Bjorklund for Karim
Tuning : E A D G 	Time Signature: 4/4

 |       |       |       |        |       |       |       |        
|2---------------2---2-------2---|0---------------0---0-------0---|
|------------------------------2-|------------------------------2-|
|--------------------------------|--------------------------------|
|--------------------------------|--------------------------------|

 |       |       |       |        |       |       |       |        
|--------------------------------|--------------------------------|
|3---------------3---3-----------|2---------------2---2-----------|
|--------------------------------|--------------------------------|
|--------------------------------|--------------------------------|

 |       |       |       |        |       |       |       |        
|--------------------------------|--------------------------------|
|0---------------0---0-------0---|--------------------------------|
|------------------------------0-|3---------------3---3-----------|
|--------------------------------|--------------------------------|

 |       |       |       |        |       |       |       |        
|--------------------------------|--------------------------------|
|--------------------------------|--------------------------------|
|2---------------2---2-----------|0---------------0---0-----------|
|--------------------------------|--------------------------------|

 The night....   |       |        |       |       |       |        
|2---------------2---2-----------|0---------------0---0-----------|
|--------------------------------|--------------------------------|
|--------------------------------|--------------------------------|
|--------------------------------|--------------------------------|

 |       |       |       |        |       |       |       |        
|--------------------------------|--------------------------------|
|3---------------3---3-----------|2---------------2---2-----------|
|--------------------------------|--------------------------------|
|--------------------------------|--------------------------------|

 |       |       |       |        |       |       |       |        
|--------------------------------|--------------------------------|
|0---------------0---0---------0-|--------------------------------|
|--------------------------------|3---------------3---3-----------|
|--------------------------------|--------------------------------|

 |       |       |       |        |       |       |       |        
|--------------------------------|--------------------------------|
|--------------------------------|------------------------0-------|
|2---------------2---2-----------|0---------------0---0-----------|
|--------------------------------|--------------------------------|

 |       |       |       |        |       |       |       |        
|2---------------2---2-------2---|0---------------0---0-----------|
|------------------------------2-|--------------------------------|
|--------------------------------|--------------------------------|
|--------------------------------|--------------------------------|

 |       |       |       |        |       |       |       |        
|--------------------------------|--------------------------------|
|3---------------3---3-----------|2---------------2---2-----------|
|--------------------------------|--------------------------------|
|--------------------------------|--------------------------------|

 |       |       |       |        |       |       |       |        
|--------------------------------|--------------------------------|
|0---------------0---0-----------|--------------------------------|
|--------------------------------|3---------------3---3-----------|
|--------------------------------|--------------------------------|

 |       |       |       |        |       |       |       |        
|--------------------------------|------------------------2-------|
|--------------------------------|--------------------------------|
|2---------------2---2-----------|0---------------0---------------|
|--------------------------------|--------------------------------|

 |       |       |       |        |       |       |       |        
|--------------------------------|--------------------------------|
|--------------------------------|--------------------------------|
|0---0---0---0---0---0---0---0-3-|4---4---4---4---4---4---4---4---|
|--------------------------------|--------------------------------|

 |       |       |       |        |       |       |       |        
|--------------------------------|--------------------------------|
|--------------------------------|--------------------------------|
|5---5---5-------5---5---5---5-4-|3-------------------------------|
|--------------------------5-----|----0-0-1-2-3-0-0---0---0---2---|

 |       |       |       |        |       |       |       |        
|--------------------------------|--------------------------------|
|--------------------------------|--------------------------------|
|0---0---0---0---0---0---0---0-3-|4---4---4---4---4---4---4---4-0-|
|--------------------------------|--------------------------------|

 |       |       |       |        |       |       |       |        
|--------------------------------|--------------------------------|
|--------------------------------|--------------------------------|
|5---5---5---5---5---5---5-5-5-4-|3-------------------------------|
|--------------------------------|----0-0-1-2-3-0-0---0---0---2---|

 |       |       |       |        |       |       |       |        
|--------------------------------|--------------------------------|
|--------------------------------|--------------------------------|
|0---0---0---0---0-0-0-0-0-0-0-0-|--5-----------------------------|
|--------------------------------|3---3---3---3---3---3---3---3---|

 |       |       |       |        |       |       |       |        
|--------------------------------|--------------------------------|
|--------------------------------|--------------------------------|
|0---0---0---0---0---0---0---0---|--------------------------------|
|--------------------------------|3---3---3---3---3---3---3---3---|

 |       |       |       |        |       |       |       |        
|--------------------------------|--------------------------------|
|--------------------------------|--------------------------------|
|0---0---0---0---0---0-0-0-0-3---|5---5---5---5---5---5---5---5---|
|------------------------------0-|--------------------------------|

 |       |       |       |        |       |       |       |        
|--------------------------------|--------------------------------|
|--------------------------------|--------------------------------|
|3---3---3---3---3---3---3---3---|2---2---2---2---2---2---2---2---|
|--------------------------------|--------------------------------|

 |       |       |       |        |       |       |       |        
|--------------------------------|2---------------2---2-----------|
|--------------------------------|--------------------------------|
|--------------------------------|--------------------------------|
|0---0---0---0---0---0---0-0-0-0-|--------------------------------|

 |       |       |       |        |       |       |       |        
|0---------------0---0-----------|--------------------------------|
|--------------------------------|3---------------3---3-----------|
|--------------------------------|--------------------------------|
|--------------------------------|--------------------------------|

 |       |       |       |        |       |       |       |        
|--------------------------------|--------------------------------|
|--------------------------and so on...---------------------------|
|--------------------------------|--------------------------------|
|--------------------------------|--------------------------------|
            
Submit corrections

comments powered by Disqus
↑ Back to top | Cocker Joe Bass for Night Calls. Lyrics for acoustic guitar and electric guitar. 1 Tablatures and chords are parodies/interpretations of the original songs. You may use it for private study, scholarship, research or language learning purposes only