» » »

Cocker Joe, Dont You Love Me Anymore Bass tabs (ver.1)

Artists:  A B C D E F G H I J K L M N O P Q R S T U V W X Y Z # 

Dont You Love Me Anymore Bass tabs (ver.1)

Cocker Joe Tabs
Rating:
0/5 (0 votes)
Dont You Love Me Anymore lessons Tabs too difficult? Try these video lessons and learn fast
                joe cocker_don't you love me anymore

TablEdited by Jan Bjorklund   
You are welcome to request for tabs!
Fingering and positions as suggested by TablEdit, please use common sense.


TablEdited by Jan Bjorklund
Tuning : E A D G 	Time Signature: 4/4

 |               |               |               |                
|--------------------------------------------------------1-------|
|----------------------------------------------------------------|
|----------------------------------------------------------------|
|----------------------------------------------------------------|

 |               |               |               |                
|0---------------------------------------------------------------|
|4-2-0-----------------------------------------------------------|
|------4-2-0-----------------------------------------------------|
|------------4-------------------------4-------4-----------------|

 |               |               |               |                
|----------------------------------------------------------------|
|----------------------------------------------------------------|
|------------------4-------------------------4-------4-----------|
|----------------------------------------------------------------|

 |               |               |               |                
|----------------------------------------------------------------|
|----------------------------------------------------------------|
|----------------------------------------------------------------|
|------------------------4-------------------------4-------4-----|

 |               |               |               |                
|----------------------------------------------------------------|
|----------------------------------------------------------------|
|------------------------------4-------------------------4-------|
|----------------------------------------------------------------|

 |               |               |               |                
|----------------------------------------------------------------|
|------------------1---------------------------------------------|
|4---------------------------------------------------------------|
|------------------------------------4-------------------------4-|

 |               |               |               |                
|----------------------------------------------------------------|
|----------------------------------------------------------------|
|------------------------------------------4---------------------|
|--------4-------------------------------------------------------|

 |               |               |               |                
|----------------------------------------------------------------|
|------------------------------1---------------------------------|
|----4---------4-------------------------------------------------|
|------------------------------------------------4---------------|

 |               |               |               |                
|----------------------------------------------------------------|
|----------------------------------------------------------------|
|------------------------------------------------------4---------|
|----------4---------4-------------------------------------------|

 |               |               |               |                
|----------------------------------------------------------------|
|----------------------------------------------------------------|
|----------------4---------4-------------------------------------|
|------------------------------------------------------------4---|

 |               |               |               |                
|----------------------------------------------------------------|
|----------------------------------------------------------------|
|----------------------------------------------------------------|
|----------------------4---------4-------------------------------|

 |               |               |               |                
|----------------------------------------------------------------|
|----------------------------------------------------------------|
|--4-------------------------4---------3-------------------------|
|----------------------------------------------------------------|

 |               |               |               |                
|----------------------------------------------------------------|
|----------------------------------------------------------------|
|3-------1-------------------------1---------1-------------------|
|----------------------------------------------------------------|

 |               |               |               |                
|----------------------------------------------------------------|
|--------------1---------------------------1-------1-------------|
|----------------------------------------------------------------|
|----------------------------------------------------------------|

 |               |               |               |                
|----------------------------------------------------------------|
|----2-----------------------------------------------------------|
|----------------------------------------------------------------|
|--------------------1---------------------------1-------1-------|

 |               |               |               |                
|----------------------------------------------------------------|
|--------------------------1---------------------------1-------1-|
|----------------------------------------------------------------|
|----------------------------------------------------------------|

 |               |               |               |                
|----------------------------------------------------------------|
|----------------4/------12--------------------------------------|
|----------------------------------4-------------------------4---|
|----------------------------------------------------------------|

 |               |               |               |                
|----------------------------------------------------------------|
|----------------------------------------1-----------------------|
|----4-----------------------------------------------------------|
|----------------------------------------------------------------|

 |               |               |               |                
|----------------------------------------------------------------|
|--1-------1-----------------------------------------------------|
|----------------------------3-----------------------------------|
|----------------------------------------------1-----------------|

 |               |               |               |                
|----------------------------------------------------------------|
|----------------------------------------------------1-----------|
|----------------------------------------------------------------|
|--------1-------1-----------------------------------------------|

 |               |               |               |                
|----------------------------------------------------------------|
|--------------1-------1-----------------4/--12------------------|
|----------------------------------------------------------4-----|
|----------------------------------------------------------------|

 |               |               |               |                
|----------------------------------------------------------------|
|----------------------------------------------------------------|
|--------------------4-------4-----------------------------------|
|----------------------------------------------------------------|

 |               |               |               |                
|----------------------------------------------------------------|
|1-------------------------1-------------------------------------|
|----------------------------------4-------------3-----------1---|
|----------------------------------------------------------------|

 |               |               |               |                
|----------------------------------------------------------------|
|----------------------------------------------------------------|
|----------------------------------------------------------------|
|------4-------------------------4-------4-----------------------|

 |               |               |               |                
|----------------------------------------------------------------|
|----------------------------------------------------------------|
|------------4-------------------------4-------4-------------3---|
|----------------------------------------------------------------|

 |               |               |               |                
|----------------------------------------------------------------|
|----------------------------------------------------------------|
|----------1-----------------------------------------------------|
|------------------4-------------------------4---------4---------|

 |               |               |               |                
|----------------------------------------------------------------|
|----------------------------------------------------------------|
|------------------------4-----------------3-----------------1---|
|----------------------------------------------------------------|

 |               |               |               |                
|----------------------------------------------------------------|
|------------1---------------------------------------------------|
|----------------------------------------------------------------|
|------------------------------4-------------------------4-------|

 |               |               |               |                
|----------------------------------------------------------------|
|----------------------------------------------------------------|
|----------------------------------------------------------------|
|--4-------------------------1---1---2-------------------------2-|

 |               |               |               |                
|----------------------------------------------------------------|
|------------------------------------------1/9-------------------|
|----------------------------------------------------------------|
|--------1-------------------------1-----------------------------|

 |               |               |               |                
|------------------------------------------------8---------------|
|----------------------------------------------------------------|
|----------------------------------------------------------------|
|----------------------------------------------------------------|

 |               |               |               |                
|--8/----1-------------------------------------------------------|
|----------------------------------------------------------------|
|----------------------------------------------------------------|
|--------------------4-------------------------4-------4---------|

 |               |               |               |                
|----------------------------------------------------------------|
|----------------------------------------------------------------|
|--------------------------4-------------------------4-------4---|
|----------------------------------------------------------------|

 |               |               |               |                
|----------------------------------------------------------------|
|--------------1-------------------------------------------------|
|----------------------------------------------------------------|
|--------------------------------4-------------------------4-----|
            
Submit corrections

comments powered by Disqus
↑ Back to top | Cocker Joe Bass for Dont You Love Me Anymore. Lyrics for acoustic guitar and electric guitar. Tablatures and chords are parodies/interpretations of the original songs. You may use it for private study, scholarship, research or language learning purposes only