>
 >
Love Song

Love Song Guitar Tabs

Cockburn Bruce - Love Song chords, tabs, tablatures, lyrics

Guitar lessons | Add/correct | Request | Top 50 tabs Artists:  A B C D E F G H I J K L M N O P Q R S T U V W X Y Z 0-9

Love Song Guitar Tabs – Cockburn Bruce

CD, Sheet music, Poster

Do you like Love Song? Share with your friends now
Tabs
Love Song  - Bruce Cockburn
 ~~~~~~~~~
 From "High Winds White Sky".

 Two guitars, both in standard tuning.
 Guitar #1: capo 1st fret.
 Guitar #2: capo 4th fret.

 4/4 time.


             , . , . , . , .    , . , . , . , .
        ||-------2------------|-----2-------------||
        ||-------3-strum------|-----3-strum-------||
 Guitar ||*--0----------------|-0----------------*||
   #1   ||*-------------------|------------------*||
        ||--------------------|-------------------||
        ||--------------------|-------------------||




    , . , . , . , .    , . , . , . , .    , . , . , . , .
 ||-----2------------|-----2------------|-----2-----------|
 ||-----3-strum------|-----3-strum------|-----3-strum-----|
 ||-0----------------|-4----------------|-2---------------|
 ||------------------|------------------|-----------------|
 ||------------------|------------------|-----------------|
 ||------------------|------------------|-----------------|
    In      the        place   my         won-    der



   , . , . , . , .    , . , . , . , .    , . , . , . , .
 |-----2-------2----|-----2-------2----|-0----------------|
 |-----3-------3----|-----3-strum-3----|-2-strum----------|
 |-0----------------|-----4-------4----|-2----------------|
 |---------4h5------|-4-----------4----|-2----------------|
 |------------------|-2-----------2----|-0----------------|
 |------------------|------------------|------------------|
   comes   from       There                      I find



   , . , . , . , .    , . , . , . , .    , . , . , . , .
 |-----3------------|-----3------------|-----0------------|
 |-----0-strum------|-----0-strum------|-----1-strum------|
 |-----0------------|-----0------------|-----0------------|
 |-----0------------|-----0------------|-2----------------|
 |------------------|------------------|-3----------------|
 |-3----------------|-3----------------|------------------|
   you                                               Your



   , . , . , . , .    , . , . , . , .    , . , . , . , .
 |-----2------------|-----3------------|-----3------------||
 |-----3-strum------|-----3-strum------|-----3------------||
 |-----2------------|-----0------------|-----0------------||
 |-0----------------|-----0------------|-----0------------||
 |------------------|------------------|------------------||
 |------------------|-3----------------|-3----------------||
   face shines in my sky



         , . , . , . , .   , . , . , . , .   , . , . , . , .
     ||------2-----------|-----2-----------|-----2-------2---|
     ||------3-strum-----|-----3-strum-----|-----3-------3---|
 G#1 ||*-0---------------|-4---------------|-2-------2h4-----|
     ||*-----------------|-----------------|-----------------|
     ||------------------|-----------------|-----------------|
     ||------------------|-----------------|-----------------|
     ||                  |                 |                 |
     ||                  |                 |                 |
     ||  , . , . , . , . | , . , . , . , . | , . , . , . , . |
     ||--------0-----0---|-------0-----0---|-----0-------0---|
     ||------4---4-----4-|-----4---4-----4-|-------4-------4-|
 G#2 ||*---4-------4-----|---4-------4-----|---4-------4-----|
     ||*-2---------------|-6---------------|-4-------4-------|
     ||------------------|-----------------|-----------------|
     ||------------------|-----------------|-----------------|
         In      your      heart   where     the     world
         Though  my        eyes    be        closed  for



   , . , . , . , .    , . , . , . , .    , . , . , . , .
 |-----2-------2----|-----2-------2----|-0----------------|
 |-----3-------3----|-----3-strum-3----|-2-strum----------|
 |-0----------------|-----4-------4----|-2----------------|
 |---------4h5------|-4-----------4----|-2----------------|
 |------------------|-2-----------2----|-0----------------|
 |------------------|------------------|------------------|
 |                  |                  |                  |
 |                  |                  |                  |
 | , . , . , . , .  | , . , . , . , .  | , . , . , . , .  |
 |-----0-------0----|-----0---0--------|-------0----------|
 |-------0-------0--|-------4----------|-----2---2---2----|
 |---4-------4------|---4-------4---4--|---3-------3---3--|
 |-2-------2--------|-6-----------6----|-4----------------|
 |------------------|------------------|------------------|
 |------------------|------------------|------------------|
   comes   from       There                 you will find
   e-      ver        Still                  I would find



   , . , . , . , .    , . , . , . , .    , . , . , . , .
 |-----3------------|-----3------------|-----0------------|
 |-----0-strum------|-----0-strum------|-----1-strum------|
 |-----0------------|-----0------------|-----0------------|
 |-----0------------|-----0------------|-----2------------|
 |------------------|------------------|-3----------------|
 |-3----------------|-3----------------|------------------|
 |                  |                  |                  |
 |                  |                  |                  |
 | , . , . , . , .  | , . , . , . , .  | , . , . , . , .  |
 |-----0---0--------|-------0----------|---------0-----0--|
 |-------4----------|-----4---4--------|-------2---2------|
 |---4-------4---4--|---4-------4---4--|-----2-------2----|
 |-2-----------2----|-2-----------2----|------------------|
 |------------------|------------------|-4----------------|
 |------------------|------------------|------------------|
   me                                                Your
   you                                               You



   , . , . , . , .    , . , . , . , .    , . , . , . , .
 |-----2------------|-3-------3--------|-3----------------|
 |-----3-strum------|-3-------3--------|-1----------------|
 |-----2------------|-0-------0--------|-0-----------0----|
 |-0----------------|-2-------2--------|-2-------0h2------|
 |------------------|------------------|-----3------------|
 |------------------|------------------|------------------|
 |                  |                  |                  |
 |                  |                  |                  |
 | , . , . , . , .  | , . , . , . , .  | , . , . , . , .  |
 |------------------|------------------|------------------|
 |-------0---0------|-------0---0------|-----2-------2----|
 |-----2-------2----|-----1-------1----|---------1h2------|
 |------------------|-2-------2--------|------------------|
 |-2-------2--------|------------------|-4----------------|
 |------------------|------------------|------------------|
   eyes dance in  my  mind
   shine  across  my  time



   , . , . , . , .    , . , . , . , .    , . , . , . , .
 |-----3------------|------------------|-----3------------|
 |-----1-strum------|-------1----------|-----3-strum------|
 |-----0------------|-------0----------|-----0------------|
 |-----2------------|-2p0h2-----0h2p0--|-----0------------|
 |-3----------------|-3---------3------|------------------|
 |------------------|------------------|-3----------------|
 |                  |                  |                  |
 |                  |                  |                  |
 | , . , . , . , .  | , . , . , . , .  | , . , . , . , .  |
 |------------------|-------0----------|---------------0--|
 |-------2---2------|-2p0h2------------|-------0-----0----|
 |-----2-------2----|-----------1h2p1--|-----1-----1------|
 |------------------|------------------|-2-------2--------|
 |-4-------4--------|------------------|------------------|
 |------------------|------------------|------------------|





   , . , . , . , .     , . , . , . , .   , . , . , . , .
 |-----3------------||-------0-------0-|-0---------0-----|
 |-----3-strum------||-----0-------0---|-------0-------0-|
 |-----0------------||-0-------2-------|-----4-------4---|
 |-----0------------||-----------------|-5-------5-------|
 |------------------||-----------------|-----------------|
 |-3----------------||-----------------|-----------------|
 |                  ||                 |                 |
 |                  ||                 |                 |
 | , . , . , . , .  || , . , . , . , . | , . , . , . , . |
 |------------------||-----------------|-------0-------0-|
 |-0---0-------0----||-----------------|-----0---0---0---|
 |---1---1----------||-----tacit-------|---4-------4-----|
 |---------2--------||-----------------|-6---------------|
 |------------------||-----------------|-----------------|
 |------------------||-----------------|-----------------|
               So      come    with      me



   , . , . , . , .    , . , . , . , .    , . , . , . , .
 |-0---------0------|-0---------0------|-----0-------0---|
 |-------0-------0--|-------0-------0--|-----------------|
 |-----4-------4----|-----4-------4----|-5-------4-------|
 |-5-------5--------|-5-------5--------|-----------------|
 |------------------|------------------|-----------------|
 |------------------|------------------|-----------------|
 |                  |                  |                 |
 |                  |                  |                 |
 | , . , . , . , .  | , . , . , . , .  | , . , . , . , . |
 |-------0----------|-----0-------0----|-----------------|
 |-----0---0---0----|---0---0---0---0--|-5-------4-------|
 |---4-------4------|-4-------4--------|-6-------4-------|
 |-6----------------|------------------|-----------------|
 |------------------|------------------|-----------------|
 |------------------|------------------|-----------------|
                              We will    sail    on  the



   , . , . , . , .    , . , . , . , .    , . , . , . , .
 |-----------0------|-----------0------|-----------0------|
 |-------0-------0--|-------0-------0--|-------0-------0--|
 |-----5-------5----|-----5-------5----|-----5-------5----|
 |-7-------7--------|-7-------7--------|-7-------7--------|
 |------------------|------------------|------------------|
 |------------------|------------------|------------------|
 |                  |                  |                  |
 |                  |                  |                  |
 | , . , . , . , .  | , . , . , . , .  | , . , . , . , .  |
 |-----------0------|-----------0------|-----------0------|
 |-2-----2----------|-------2----------|-------2----------|
 |-2---2---2---2\1--|-----2-------2\1--|-----2-------2----|
 |------------------|-4-------4--------|-4-------4--------|
 |------------------|------------------|------------------|
 |------------------|------------------|------------------|
   wind                                          We will




   , . , . , . , .    , . , . , . , .    , . , . , . , .
 |-----0-------0----|-----0-------0----|-----0-------0----|
 |------------------|------------------|------------------|
 |-5-------4--------|-2-------0--------|-4-------2--------|
 |------------------|------------------|------------------|
 |------------------|------------------|------------------|
 |------------------|------------------|------------------|
 |                  |                  |                  |
 |                  |                  |                  |
 | , . , . , . , .  | , . , . , . , .  | , . , . , . , .  |
 |------------------|------------------|------------------|
 |-5-------4--------|-2-------0--------|-4-------2--------|
 |-6-------4--------|-2-------1--------|-4-------2--------|
 |------------------|------------------|------------------|
 |------------------|------------------|------------------|
 |------------------|------------------|------------------|
   sway    a-         mong    the        yel-    low



   , . , . , . , .    , . , . , . , .    , . , . , . , . 

 |-----------0------|-----------0------|-----------0------|
 |-------0-------0--|-------0-------0--|-------0-------0--|
 |-----2-------2----|-----2-------2----|-----2-------2----|
 |-4-------4--------|-4-------4--------|-4-------4--------|
 |------------------|------------------|------------------|
 |------------------|------------------|------------------|
 |                  |                  |                  |
 |                  |                  |                  |
 | , . , . , . , .  | , . , . , . , .  | , . , . , . , .  |
 |---------0--------|------------------|---------0--------|
 |-------2---2---2--|-------2-------2--|-------2---2---2--|
 |-1---1-------1----|-----1-------1----|-----1-------1----|
 |-1----------------|-1-------1--------|-1----------------|
 |------------------|------------------|------------------|
 |------------------|------------------|------------------|
   grass



   , . , . , . , .6/4, . , . , . , . , . , .4/4, . , . , . , .
 |-----0---0-------|-----0---0-------2-------|-----0-------0---|
 |-----0---0-strum-|-----3---0-strum-3-strum-|-----1-strum-1---|
 |-----0---4-------|-----2---0-------2-------|-----0-------0---|
 |-2---------------|-0-------2-------0-------|-----2-----------|
 |-----------------|-------------------------|-3---------------|
 |-----------------|-------------------------|-----------------|
 |                 |                         |                 |
 |                 |                         |                 |
 | , . , . , . , . | , . , . , . , . , . , . | , . , . , . , . |
 |---------0-------|-------------------------|-------------0---|
 |-------0---0---0-|-------0-------0-------0-|-------0-------0-|
 |-----4-------4---|-----4-------4-------4---|-----6-----6-----|
 |-----------------|-------------------------|-6h7-------------|
 |-4---------------|-2-------4-------2-------|-----------------|
 |-----------------|-------------------------|-----------------|
   When you be       beside  me      I   am    real



   , . , . , . , .    , . , . , . , .    , . , . , . , .
 |-----0-------0----|-----0-------0----|-----0-------2----|
 |-----1-strum-1----|-----1-strum-1----|-----1-------3----|
 |-----0-------0----|-----0-------0----|-----0-------2----|
 |-----2------------|-----2------------|---------0--------|
 |-3----------------|-3----------------|-3----------------|
 |------------------|------------------|------------------|
 |                  |                  |                  |
 |                  |                  |                  |
 | , . , . , . , .  | , . , . , . , .  | , . , . , . , .  |
 |-------------0----|-------------0----|-----0-------0----|
 |-------0-------0--|-------0-------0--|------------------|
 |-----6-----6------|-----6-----6------|---------2h4------|
 |-6h7--------------|-6h7--------------|-6h7--------------|
 |------------------|------------------|------------------|
 |------------------|------------------|------------------|




   , . , . , . , .    , . , . , . , .    , . , . , . , .
 |-------------0----|-----0------------|-------------0----|
 |-----2-strum-2----|-----2-strum------|-----2-strum-2----|
 |-----2-------2----|-----2------------|-----2-------2----|
 |-----0h2-----2----|-----2------------|-----0h2-----2----|
 |-0----------------|-0----------------|-0----------------|
 |------------------|-------------0h2--|------------------|
 |                  |                  |                  |
 |                  |                  |                  |
 | , . , . , . , .  | , . , . , . , .  | , . , . , . , .  |
 |-------2-------2--|---------------2--|-------------2----|
 |-----2-------2----|-------2-----2----|-2---------2------|
 |-----------3------|-----3-----3------|---3-----------3--|
 |-2h4--------------|-2h4--------------|-----2h4----------|
 |------------------|------------------|------------------|
 |------------------|------------------|------------------|




   , . , . , . , .     , . , . , . , .   , . , . , . , .
 |-----0-------0----||-----2-----------|-----2-----------|
 |-----2-strum-2----||-----3-strum-----|-----3-strum-----|
 |-----2-------2---*||-0---------------|-4---------------|
 |-----2-------2---*||-----------------|-----------------|
 |-0----------------||-----------------|-----------------|
 |------------------||-----------------|-----------------|
 |                  ||                 |                 |
 |                  ||                 |                 |
 | , . , . , . , .  || , . , . , . , . | , . , . , . , . |
 |-------2-----2----||-------0-----0---|-------0-----0---|
 |-----2------------||-----4---4-----4-|-----4---4-----4-|
 |-----------------*||---4-------4-----|---4-------4-----|
 |-2h4-----2h4-----*||-2---------------|-6---------------|
 |------------------||-----------------|-----------------|
 |------------------||-----------------|-----------------|
                       In      the       place   my



   , . , . , . , .   , . , . , . , .    , . , . , . , .
 |-----2-----------|-----2------------|-----2-------2----|
 |-----3-----------|-----3------------|-----3-strum-3----|
 |-2-------2h4-----|-0----------------|-----4-------4----|
 |-----------------|---------4h5------|-4-----------4----|
 |-----------------|------------------|-2-----------2----|
 |-----------------|------------------|------------------|
 |                 |                  |                  |
 |                 |                  |                  |
 | , . , . , . , . | , . , . , . , .  | , . , . , . , .  |
 |-----0-------0---|-----0-------0----|-----0---0--------|
 |-------4-------4-|-------0-------0--|-------4----------|
 |---4-------4-----|---4-------4------|---4-------4---4--|
 |-4-------4-------|-2-------2--------|-6-----------6----|
 |-----------------|------------------|------------------|
 |-----------------|------------------|------------------|
   won-    der       comes   from       there



   , . , . , . , .   , . , . , . , .   , . , . , . , .
 |-0---------------|-----3-----------|-3---------------||
 |-2-strum---------|-----3-strum-----|-3---------------||
 |-2---------------|-----0-----------|-0---------------||
 |-2---------------|-----0-----------|-0---------------||
 |-0---------------|-----2-----------|-2---------------||
 |-----------------|-3---------------|-3---------------||
 |                 |                 |                 || Fine.
 |                 |                 |                 || 2'29"
 | , . , . , . , . | , . , . , . , . | , . , . , . , . ||
 |-------0---------|-----0---0-------|-0---------------||
 |-----2---2---2---|-------4---------|-0---------------||
 |---3-------3---3-|---4-------4-----|-1---------------||
 |-4---------------|-2-----------2---|-2---------------||
 |-----------------|-----------------|-2---------------||
 |-----------------|-----------------|-0---------------||
           I find    you





Comments


Popular Cockburn Bruce tabs & chords
Pacing The Cage Chords
The Whole Night Sky Chords
Waiting For The Moon Chords
All The Diamonds Tabs
Closer To The Light 1 Tabs
Let Us Go Laughing Tabs
Lifes Mistress 1 Tabs
Mama Just Wants To Barrelhouse Tabs
Train In The Rain 1 Tabs
Wondering Where The Lions Are Tabs


Song lyrics



↑ Back to top | Tablatures and chords are parodies/interpretations of the original songs. You may use it for private study, scholarship, research or language learning purposes only
© 2014 AZChords.com Contact us | Privacy policy | DMCA | Add/correct tabs | Request tabs | Top 50 tabs