>
 >
Let Us Go Laughing

Let Us Go Laughing Guitar Tabs

Cockburn Bruce - Let Us Go Laughing chords, tabs, tablatures, lyrics

Guitar lessons | Add/correct | Request | Top 50 tabs Artists:  A B C D E F G H I J K L M N O P Q R S T U V W X Y Z 0-9

Let Us Go Laughing Guitar Tabs – Cockburn Bruce

CD, Sheet music, Poster

Do you like Let Us Go Laughing? Share with your friends now
Tabs
[this looks like a john kean tab, but i'm not sure - archivist]

 Let Us Go Laughing  - Bruce Cockburn
 ~~~~~~~~~~~~~~~~~~
 From "High Winds White Sky".


 Guitar #1 - drop-D tuning and all strings down one semitone
  (Db,Ab,Db,Gb,Bb,Eb);
 Guitar #2 - standard tuning and capo 4th fret.

 Slow 4/4 time (mostly).


            ,  .  ,  .  ,  .  ,  .         ,  .  ,  .  ,  .  ,   .
        ||-------------------------------|---------------------------|
        ||--------3--------3-------------|----3-----3-----3----------|
 Guitar ||-----2-----------2-------------|----0-----0-----0----------|
   #1   ||--4--------4--------4--2h4p2p0-|-2-----2---------------0---|
        ||-------------------------------|-0--------0--0-----0h2---2-|
        ||--0-----------0----------------|---------------------------|




   ,   .   ,   .   ,   .   ,   .     ,   .   ,   .   ,   .   ,   .   
 |---------------------0-----------|--------------------------------||
 |-------------3-----------3-------|-----3-------3-----------3------||
 |---------2---2-----------2---2---|-0-----------0-----------0------||
 |-------4---4---------4-------4---|-5-------2-----------2----------||
 |-----0---------------------------|-0---------------0-----------0--||
 |-0---------------0---------------|--------------------------------||
                                                              My 



    ,   .   ,   .   ,   .   ,   .    ,   .   ,   .   ,   .   ,   .   
 ||--------------------------------|---------------------------------|
 ||---------3-----------3-------3--|---------3-------3---3-----------|
 ||---------2-----------2-------2--|---------0-------0---0-----------|
 ||-----4-----------4-----------4--|-----2---------2-------------0---|
 ||--------------------------------|-0-----------0-----------0h2---2-|
 ||-0-----------0-----------0------|---------------------------------|
    canoe       lies   on   the      water



   ,   .   ,   .   ,   .   ,   .     ,   .   ,   .   ,   .   ,   .   
 |---------------------------------|---------------------------------|
 |-------------3-----------3-------|---------3---------------3-------|
 |---------2---2-----------2-------|---------0---------------0-------|
 |-------4---4---------4-------4---|-----2-------2-------2-------2---|
 |-----0---------------------------|-0---------------0---------------|
 |-0---------------0---------------|---------------------------------|
                       Evening       holds             the bones of



   ,   .   ,   .   ,   .   ,  .       ,   .   ,   .   ,   .   ,   .  
 |----------------------------------|--------------------------------|
 |---------3-----------3------------|-----3-------3-----------3------|
 |---------2-----------2------------|-----0-------0-----------0------|
 |-----4-------4-----------4--4p2p0-|-2-----------2-------2-------2--|
 |----------------------------------|-0-------0-------0--------------|
 |-0---------------0----------------|--------------------------------|
   day                                                        The



   ,   .   ,   .   ,   .   ,   .     ,   .   ,   .   ,   .   ,   .   
 |-----------3---------------------|-----------------3---------------|
 |---------1---1---------------1---|-------------3-------3-----------|
 |-------0---------0-------0-------|---------0---------------0-------|
 |-----3---------------3-----------|-----2-----------2-----------2---|
 |---------------------------------|---------------------------------|
 |-3-----------3-------------------|-2-----------2-------------------|
   sun                     like      gold  dust              slips



   ,   .   ,   .   ,   .   ,   .     ,   .   ,   .   ,   .   ,   .   
 |---------0-------------0---------|-------------------------0------||
 |-----------------3-------1p0-----|---------1---1---1-----------1--||
 |---------------------------------|-2-------------------2----------||
 |-----2-------2-------2-------2---|-----2-----------2-------2------||
 |-0-------0-------0-------0-------|-0-----------0-------0----------||
 |---------------------------------|--------------------------------||
   away



    ,   .   ,   .   ,   .   ,   .    ,   .   ,   .   ,   .   ,   .   
 ||--------------------------------|---------------------------------|
 ||-3-----------3-----------3------|---------3-------3---3-----------|
 ||-2---2-------------------2------|---------0-------0---0-----------|
 ||-4-------4-----------4----------|-----2---------2-------------0---|
 ||--------------------------------|-0-----------0-----------0h2---2-|
 ||-0---------------0-----------0--|---------------------------------|
    One  by  one                     antique  stars



   ,   .   ,   .   ,   .   ,   .     ,   .   ,   .   ,   .   ,   .   
 |---------------------------------|---------------------------------|
 |-------------3-----------3-------|---------3---------------3-------|
 |---------2---2-----------2-------|---------0---------------0-------|
 |-------4---4---------4-------4---|-----2-------2-------2-------2---|
 |-----0---------------------------|-0---------------0---------------|
 |-0---------------0---------------|---------------------------------|
                       herald  the   arrival  of



   ,   .   ,   .   ,   .   ,  .       ,   .   ,   .   ,   .   ,   .  
 |----------------------------------|--------------------------------|
 |---------3-----------3------------|-----3-------3-----------3------|
 |---------2-----------2------------|-----0-------0-----------0------|
 |-----4-------4-----------4--4p2p0-|-2-----------2-------2-------2--|
 |----------------------------------|-0-------0-------0--------------|
 |-0---------------0----------------|--------------------------------|
                                                              their



   ,   .   ,   .   ,   .   ,   .     ,   .   ,   .   ,   .   ,   .   
 |-----------3---------------------|-----------3---------------------|
 |---------1---1---------------1---|---------3---3-------------------|
 |-------0---------0-------0-------|-------0---------0-------0-------|
 |-----3---------------3-----------|-----2---------------2-------2---|
 |---------------------------------|---------------------------------|
 |-3-----------3-------------------|-2-----------2-------------------|
   pale                    protectress



   ,   .   ,   .   ,   .   ,   .     ,   .   ,   .   ,   .   ,   .   
 |---------------------------------|--------------------------------||
 |---------3-------3-------3-------|---------3-------3-------3------||
 |---------0h2-----2-------2-------|---------0h2-----4p2-----2------||
 |-----0-------0-------0-------0---|-----0-------0-------0-------0--||
 |---------------------------------|--------------------------------||
 |-0-------------------------------|-0------------------------------||
   moon



           ,  .  ,  .  ,  .  ,  .     ,   .   ,   .   ,   .   ,   .   
        ||-------------------------|---------------------------------|
        ||-------3--------3--------|----------3-------3---3----------|
 Guitar ||----2-----------2-----2--|----------0-------0---0----------|
   #1   ||-4--------4--------4-----|------2---------2-------------0--|
        ||-------------------------|--0-----------0-----------0h2----|
        ||-0-----------0-----------|---------------------------------|
        :: Ragged   branches       :  vibrate                        :
        ::                         :                                 :
        :: ,  .  ,  .  ,  .  ,  .  :  ,   .   ,   .   ,   .   ,   .  :
        ||-------------------------|---------------------------------|
        ||-------------------------|---------------------------------|
 Guitar ||-------------------------|---------------------------------|
   #2   ||-------------------------|-H4--------------H5--------------|
        ||-------------------------|---------------------------------|
        ||-------------------------|---------------------------------|




    ,   .   ,   .   ,   .   ,   .     ,   .   ,   .   ,   .   ,   .   
 |---------------------------------|--------------2---0--------------|
 |--------------3-----------3------|----------3-------------------3--|
 |----------2---2-----------2------|----------0-------0-----------0--|
 |--------4---4---------4-------4--|------2-------2-----------2------|
 |------0--------------------------|--0-------------------0----------|
 |--0---------------0--------------|---------------------------------|
 :                    Strummed  by : winds           from  over  the :
 :                                 :                                 :
 :  ,   .   ,   .   ,   .   ,   .  :  ,   .   ,   .   ,   .   ,   .  :
 |---------------------------------|---------------------------------|
 |---------------------------------|---------------------------------|
 |---------------------------------|---------------------------------|
 |---------------------------------|-H3--------------H4--------------|
 |-H4------------------------------|---------------------------------|
 |---------------------------------|---------------------------------|




    ,  .  ,  .  ,  .  ,  .          ,   .   ,   .   ,   .   ,   .  
 |-------------------------------|-----------------------------------|
 |--------3--------3-------------|------3-------3-----------3--------|
 |--------2--------2-------------|------0-------0-----------0-----0--|
 |-----4-----4--------4--2h4p2p0-|--2-----------2-------2-------2----|
 |-------------------------------|--0-------0-------0----------------|
 |--0-----------0----------------|-----------------------------------|
 :  hill                         :                                   :
 :                               :                                   :
 :  ,  .  ,  .  ,  .  ,  .       :  ,   .   ,   .   ,   .   ,   .    :
 |-------------------------------|-----------------------------------|
 |-------------------------------|-----------------------------------|
 |-------------------------------|-----------------------------------|
 |-------------------------------|-H4--------------H5----------------|
 |-H3----------------------------|-----------------------------------|
 |-------------------------------|-----------------------------------|




   ,   .   ,   .   ,   .   ,   .     ,   .   ,   .   ,   .   ,   .   
 |-----------3---------------------|-----------3---------------------|
 |---------1---1---------------1---|---------3---3-------------------|
 |-------0---------0-------0-------|-------0---------0-------0-------|
 |-----3---------------3-----------|-----2---------------2-------2---|
 |---------------------------------|---------------------------------|
 |-3-----------3-------------------|-2-----------2-------------------|
 :       Singing                   : tales              of  ancient  :
 :                                 :                                 :
 :  ,   .   ,   .   ,   .   ,   .  : ,   .   ,   .   ,   .   ,   .   :
 |-----------------0---------------|-----------------0---------------|
 |-------------0-------------------|---------0-----------------------|
 |--------------2------------------|-----------2---------------------|
 |---------------0-----------------|-------------0-------------------|
 |----------------3----------------|---------------------------------|
 |---------------------------------|-------------------------0-------|




   ,   .   ,   .   ,   .   ,   .     ,   .   ,   .   ,   .   ,   .   
 |-------------------------------0-|-----------------0--------------||
 |---------1-------3-------1h3-----|-1p0-----1---------------1------||
 |-----2-------2-------------------|----2--------2-------2----------||
 |---------------------2-------2---|-----2-------2-------2-------2--||
 |-0-------0-------0-------0-------|-0-------0-------0-------0------||
 |---------------------------------|--------------------------------||
 : days                            :                                ::
 :                                 :                                ::
 : ,   .   ,   .   ,   .   ,   .   :  ,   .   ,   .   ,   .   ,   . ::
 |---------------------------------|--------------------------------||
 |---------------------------------|--------------------------------||
 |---------------------------------|--------------------------------||
 |----------------H7---------------|--------------------------------||
 |---------------------------------|-H7-----------------------------||
 |------------------------H4-------|--------------------------------||




    ,   .   ,   .   ,   .   ,   .    ,   .   ,   .   ,   .   ,   .   
 ||--------------------------------|---------------------------------|
 ||-3-----------3-----------3------|---------3-------3---3-----------|
 ||-2---2-------2-----------2------|---------0-------0---0-----------|
 ||-4-------4-----------4-------4--|-----2---------2-------------0---|
 ||--------------------------------|-0-----------0-----------0h2---2-|
 ||-0---------------0--------------|---------------------------------|
 :: Far         and  silent        : lightning                       :
 ::                                :                                 :
 :: ,   .   ,   .   ,   .   ,   .  : ,   .   ,   .   ,   .   ,   .   :
 ||--------------------------------|---------------------------------|
 ||--------------------------------|---------------------------------|
 ||--------------------------------|---------------------------------|
 ||--------------------------------|-H4-------------H5---------------|
 ||--------------------------------|---------------------------------|
 ||--------------------------------|---------------------------------|




   ,   .   ,   .   ,   .   ,   .     ,   .   ,   .   ,   .   ,   .   
 |---------------------------------|---------------------------------|
 |-------------3-----------3-------|---------3---------------3-------|
 |---------2---2-----------2-------|---------0---------------0-------|
 |-------4---4-4-------4-------4---|-----2-------2-------2-------2---|
 |-----0---------------------------|-0---------------0---------------|
 |-0---------------0---------------|---------------------------------|
 :                    Stirs  the   : cauldron              of  the   :
 :                                 :                                 :
 : ,   .   ,   .   ,   .   ,   .   : ,   .   ,   .   ,   .   ,   .   :
 |---------------------------------|---------------------------------|
 |---------------------------------|---------------------------------|
 |---------------------------------|---------------------------------|
 |---------------------------------|-H3-------------H4---------------|
 |-H4------------------------------|---------------------------------|
 |---------------------------------|---------------------------------|




   ,   .   ,   .   ,   .   ,   .     ,   .   ,   .   ,   .   ,   .  
 |---------------------0-----------|-------------2-------------------|
 |---------3-----------------3-----|---------3---3-----------3-------|
 |---------2-----------2-------2---|-----0-------0-----------0-----0-|
 |-----4-------4-----------------4-|-2-------------------2-------2---|
 |---------------------------------|-0-----------0---0---------------|
 |-0---------------0---------------|---------------------------------|
 : sky                             :                                 :
 :                                 :                                 :
 : ,   .   ,   .   ,   .   ,   .   : ,   .   ,   .   ,   .   ,   .   :
 |---------------------------------|---------------------------------|
 |---------------------------------|---------------------------------|
 |---------------------------------|---------------------------------|
 |------------------------H5-------|---------------------------------|
 |-H3------------------------------|---------------------------------|
 |---------------------------------|---------------------------------|




   ,   .   ,   .   ,   .   ,   .     ,   .   ,   .   ,   .   ,   .   
 |-----------3---------------------|-----------3---------------------|
 |---------1---1---------------1---|---------3---3-------------------|
 |-------0---------0-------0-------|-------0---------0-------0-------|
 |-----3---------------3-----------|-----2---------------2-------2---|
 |---------------------------------|---------------------------------|
 |-3-----------3-------------------|-2-----------2-------------------|
 :                     I  turn  my : bow       toward         the    :
 :                                 :                                 :
 : ,   .   ,   .   ,   .   ,   .   : ,   .   ,   .   ,   .   ,   .   :
 |-----------------0---------------|-----------------0---------------|
 |-------------0-------------------|---------0-----------------------|
 |--------------2------------------|-----------2---------------------|
 |---------------0-----------------|-------------0-------------------|
 |----------------3----------------|---------------------------------|
 |---------------------------------|---------------------------------|




   ,   .   ,   .   ,   .   ,   .    ,   .   ,   .   ,   .   ,   .   
 |--------------------------------|---------------------------------||
 |---------3-------3-------3------|---------3-------3---------------||
 |---------0h2-----4p2-----2------|---------0h2-----4p2-----2/4-----||
 |-----0-------0-------0-------0--|-----0-------0-------0-------0---||
 |--------------------------------|---------------------------------||
 |-0------------------------------|-0-------------------------------||
 : shore                          :                                 ::
 :                                :                                 ::
 : ,   .   ,   .   ,   .   ,   .  : ,   .   ,   .   ,   .   ,   .   ::
 |-------------0-------0-------0--|-----0-------0-------0-------0---||
 |---------0h2-----4p2-----2------|---------------------------------||
 |--------------------------------|-------------------------------2-||
 |--------------------------------|---------0h2-----4p0-----2h4-----||
 |--------------------------------|-0-------------------------------||
 |--------------------------------|---------------------------------||




    ,   .   ,   .   ,   .   ,   .     ,   .   ,   .   ,   .   ,   .  
 ||---------------------------------|-------0h2---3h5----------------|
 ||-3-----------3-------------------|-3p0-3--------------------------|
 ||-----------------------------2h4-|--------------------------------|
 ||-----0-------0-------0-------0---|-----0-------0-------0-------0--|
 ||---------------------------------|--------------------------------|
 ||-0-------0-------0-------0-------|-0-------0-------0-------0------|
 ::                                 :                                :
 ::                                 :                                :
 :: ,   .   ,   .   ,   .   ,   .   : ,   .   ,   .   ,   .   ,   .  :
 ||-----0-----0-----------0-----0---|-----0-----0-----0-----0-----0--|
 ||-------3-----3-------3---3-------|-------3-----3-----3-----3------|
 ||---------2-----2---2-------2-----|---------2-----2-----2-----2----|
 ||-----------------2---------------|-2h4----------------------------|
 ||-0-------------------------------|--------------------------------|
 ||---------------------------------|--------------------------------|




   ,   .   ,   .   ,   .   ,   .     ,   .   ,   .   ,   .   ,   .   
 |-3-------3p0-3---------------3p0-|-3/5-----5p3-5-------------------|
 |-------------------------3h5-----|---------------------------------|
 |---------------------------------|---------------------------------|
 |-----0-------0-------0-------0---|-----0-------0-------0-------0---|
 |---------------------------------|---------------------------------|
 |-0-------0-------0-------0-------|-0-------0-------0-------0-------|
 :                                 :                                 :
 :                                 :                                 :
 : ,   .   ,   .   ,   .   ,   .   : ,   .   ,   .   ,   .   ,   .   :
 |---0-----0-----0-----0-----0-----|-----0-----0-----0-----0-----0---|
 |-----5-----5-----5-----5-----5---|-------5-----5-----5-----5-----5-|
 |-2-----2-----2-----2-----2-------|-7/9-----9-----9-----9-----9-----|
 |---------------------------------|---------------------------------|
 |---------------------------------|---------------------------------|
 |---------------------------------|---------------------------------|




   ,   .   ,   .   ,   .   ,   .     ,   .   ,   .   ,   .   ,   .   
 |-8-------7-7-------------7-------|-7-----7-----5-------------------|
 |---------------------------8-----|---------------------------------|
 |---------------------------------|---------------------------------|
 |-----0-------0-------0-------0---|-----0-------0-------0-------0---|
 |---------------------------------|---------------------------------|
 |-0-------0-------0-------0-------|-0-------0-------0-------0-------|
 :                                 :                                 :
 :                                 :                                 :
 : ,   .   ,   .   ,   .   ,   .   : ,   .   ,   .   ,   .   ,   .   :
 |-----0---0-----0-----0-----0-----|-0-----0-----0-----0-----0-----0-|
 |-------5---5-----5-----5-----5---|---5-----5-----5-----5-----5-----|
 |-7h9---------9-----7-----9-----7-|-----6-----7-----9-----9-----9---|
 |---------------------------------|---------------------------------|
 |---------------------------------|---------------------------------|
 |---------------------------------|---------------------------------|




   ,   .   ,   .   ,   .   ,   .     ,   .   ,   .   ,   .   ,   .   
 |-0h3-5p3-7---8-------7p5-----7---|---7h8--10p7-10------------------|
 |-----------8-------------8/10--8-|-10------------------------------|
 |---------------------------------|---------------------------------|
 |-----0-------0-------0-------0---|-----0-------0-------0-------0---|
 |---------------------------------|---------------------------------|
 |-0-------0-------0-------0-------|-0-------0-------0-------0-------|
 :                                 :                                 :
 :                                 :                                 :
 : ,   .   ,   .   ,   .   ,   .   : ,   .   ,   .   ,   .   ,   .   :
 |-----0-----0-----0-----0-----0---|---0-----0-----0-----0-----0-----|
 |-------5-----5-----5-----5-----5-|-----5-----5-----------5-----5---|
 |-7\------0-----------------------|-----------------0h2-----2-----2-|
 |---------------0-----------2-----|-------------2-------------------|
 |---------------------3-----------|-0-----4-------------------------|
 |---------------------------------|---------------------------------|




    ,   .   ,   .   ,   .   ,   .      ,   .   ,   .   ,   .   ,   .   
 |-10-7-----------------------------|-10-7-----------------------------|
 |------8-------------------7h8-10--|------8---------------7-----------|
 |--------7\5---7-------7-9---------|--------7\5---7-----------9p7-5---|
 |------0-------0-------0-------0---|------0-------0-------0-------0---|
 |----------------------------------|----------------------------------|
 |--0-------0-------0-------0-------|--0-------0-------0-------0-------|
 :                                  :                                  :
 :                                  :                                  :
 :  ,   .   ,   .   ,   .   ,   .   :  ,   .   ,   .   ,   .   ,   .   :
 |------0---0-----0-----0-----0-----|----0-------0---0---0-----0-----0-|
 |------------5-----5-----5-----5---|------5---------------5-----5-----|
 |--0h2---2-----2-----4-----2-------|--2-----2p0---2---2-----2-----2---|
 |----------------------------------|----------------------------------|
 |----------------------------------|----------------------------------|
 |----------------------------------|----------------------------------|




    ,   .   ,   .   ,   .   ,   .      ,   .   ,   .   ,   .   ,   .   
 |-10-7-----------------------------|-10-7-----------------------------|
 |------8-------------------7h8-10--|------8---------------7br-7-------|
 |--------7\5---7-----5/7-9---------|--------7\5---7-------------------|
 |------0-------0-------0-------0---|------0-------0-------0-------0---|
 |----------------------------------|----------------------------------|
 |--0-------0-------0-------0-------|--0-------0-------0-------0-------|
 :                                  :                                  :
 :                                  :                                  :
 :  ,   .   ,   .   ,   .   ,   .   :  ,   .   ,   .   ,   .   ,   .   :
 |----0-------0---0---0-----0-----0-|----0-------0---0---0-----0-----0-|
 |------5---------------5-----5-----|----------------------5-----5-----|
 |--2-----2p0---2---2-----2-----2---|--2---2p0-----2---2-----2-----2---|
 |----------------------------------|----------2-----------------------|
 |----------------------------------|----------------------------------|
 |----------------------------------|----------------------------------|




    ,   .   ,   .   ,   .   ,   .      ,   .   ,   .   ,   .   ,   .   
 |-10-7-----------------------------|-10-7-----------------------------|
 |------8-------------------7---7---|------8-------------7-8---8\5-7---|
 |--------7\5---7-----7h9-----------|--------7\5---7-------------------|
 |------0-------0-------0-------0---|------0-------0-------0-------0---|
 |----------------------------------|----------------------------------|
 |--0-------0-------0-------0-------|--0-------0-------0-------0-------|
 :                                  :                                  :
 :                                  :                                  :
 :  ,   .   ,   .   ,   .   ,   .   :  ,   .   ,   .   ,   .   ,   .   :
 |----0-------0---0---0-----0-----0-|----0-------0---0---0-----0-----0-|
 |----------------------5-----5-----|----------------------5-----5-----|
 |--2---2p0-----2---2-----2-----2---|--2---2p0-----2---2-----2-----2---|
 |----------2-----------------------|----------2-----------------------|
 |----------------------------------|----------------------------------|
 |----------------------------------|----------------------------------|




    ,   .   ,   .   ,   .   ,   .      ,   .   ,   .   ,   .   ,   .   
 |-10-7-----------------------7-----|-10-7-----------------------------|
 |------8---------------7h8-10--10--|------8-------------7h8---7-------|
 |--------7\5---7-------------------|--------7\5---7---------------7---|
 |------0-------0-------0-------0---|------0-------0-------0-------0---|
 |----------------------------------|----------------------------------|
 |--0-------0-------0-------0-------|--0-------0-------0-------0-------|
 :                                  :                                  :
 :                                  :                                  :
 :  ,   .   ,   .   ,   .   ,   .   :  ,   .   ,   .   ,   .   ,   .   :
 |----0-------0---0---0-------0---0-|----0-------0---0---0-----0-----0-|
 |----------------------5---2---2---|--2-------------------5-----5-----|
 |--2---2p0-----2---2---------------|------2p0-----2---2-----2-----2---|
 |----------2-----------------------|----------2-----------------------|
 |----------------------------------|----------------------------------|
 |----------------------------------|----------------------------------|




    ,   .   ,   .   ,   .   ,   .      ,   .   ,   .   ,   .   ,   .   
 |-10-7-----------------------------|-10-7-----------------------------|
 |------8-------------------7h8-10--|------8--------------10br-10------|
 |--------7\5---7-----7h9-----------|--------7\5---7-------------------|
 |------0-------0-------0-------0---|------0-------0-------0-------0---|
 |----------------------------------|----------------------------------|
 |--0-------0-------0-------0-------|--0-------0-------0-------0-------|
 :                                  :                                  :
 :                                  :                                  :
 :  ,   .   ,   .   ,   .   ,   .   :  ,   .   ,   .   ,   .   ,   .   :
 |----0-------0---0---0-----0-----0-|----0-------0---0---0-----0-----0-|
 |----------------------5-----5-----|----------------------5-----5-----|
 |--2---2p0-----2---2-----2-----2---|--2---2p0-----2---2-----2-----2---|
 |----------2-----------------------|----------2-----------------------|
 |----------------------------------|----------------------------------|
 |----------------------------------|----------------------------------|




    ,   .   ,   .   ,   .   ,   .      ,   .   ,   .   ,   .   ,   .   
 |-10-7-------------------------7---|-14p10----------------------------|
 |------8-----------------7-8h10----|-----13------------10h12--10------|
 |--------7\5---7-----7h9-----------|-------11\9--11-------------------|
 |------0-------0-------0-------0---|------0-------0-------0-------0---|
 |----------------------------------|----------------------------------|
 |--0-------0-------0-------0-------|--0-------0-------0-------0-------|
 :                                  :                                  :
 :                                  :                                  :
 :  ,   .   ,   .   ,   .   ,   .   :  ,   .   ,   .   ,   .   ,   .   :
 |----0-----------------0-----0---0-|----0-----------------------------|
 |--5-----------------5---2---------|--5-------------------------------|
 |------4b--r-----------------------|------4b--r---------2h4---2--h4---|
 |--------------4--/7-------7---7---|--------------4--/7---------------|
 |----------------------------------|----------------------------------|
 |----------------------------------|----------------------------------|




    ,   .   ,   .   ,   .   ,   .      ,   .   ,   .   ,   .   ,   .   
 |-14p10----------------------------|-14p10----------------------------|
 |-----13------------10h12--13--12--|-----13------------10h12--10------|
 |-------11\9--11-------------------|-------11\9--11-------------------|
 |------0-------0-------0-------0---|------0-------0-------0-------0---|
 |----------------------------------|----------------------------------|
 |--0-------0-------0-------0-------|--0-------0-------0-------0-------|
 :                                  :                                  :
 :                                  :                                  :
 :  ,   .   ,   .   ,   .   ,   .   :  ,   .   ,   .   ,   .   ,   .   :
 |----0-----------------0-------0---|----0-----------------------------|
 |--5-------------------------------|--5-------------------------------|
 |------4b--r-----------------------|------4b--r---------2h4---2--h4---|
 |--------------4--/7-------7-------|--------------4--/7---------------|
 |----------------------------------|----------------------------------|
 |----------------------------------|----------------------------------|




    ,   .   ,   .   ,   .   ,   .  5/4,  .  ,  .  ,  .  ,  .  ,   .    
 |-14p10----------------------------|-5-----5-----5-----5------------||
 |-----13------------10h12--10------|--------------------------------||
 |-------11\9--11-------------------|-7-----5-----5-----4-----5p4----||
 |------0-------0-------0-------0---|----0-----0-----0-----0------0--||
 |----------------------------------|--------------------------------||
 |--0-------0-------0-------0-------|-0-----0-----0-----0-----0------||
 :                                  :                                ::
 :                                  :                                ::
 :  ,   .   ,   .   ,   .   ,   .  5/4,  .  ,  .  ,  .  ,  .  ,   .  ::
 |----0-----------------------------|----0-----0-----0-----0------0--||
 |--5-----------------------2---3---|--------------------------------||
 |------4b--r---------2h4-----------|-2-----0-----0------------------||
 |--------------4--/7---------------|-------------------4-----5p4----||
 |----------------------------------|--------------------------------||
 |----------------------------------|--------------------------------||




 4/4,   .   ,   .   ,   .   ,   .     ,   .   ,   .   ,   .   ,   .
 ||---------5---5-5---------5-------|---------------------------------|
 ||-3-------3---3-3-3-------3-------|-3-----3---3---3---------3-------|
 ||-0h2-----2---2---2p0-----0-------|-0-----0-0-0-0-0---------2-------|
 ||-0-------0-------0-------0-------|-0h2-----2---2---2p0-0---0-------|
 ||-0---------------0-------0-------|-0-------0---0---0---0h2---------|
 ||-0---------------0---------------|-----------------------------0---|
 ::                                 :                                 :
 ::                                 :                                 :
 4/4,   .   ,   .   ,   .   ,   .   : ,   .   ,   .   ,   .   ,   .   :
 ||---------------------------------|---------------------------------|
 ||-----5---5-----5-----5---5-----5-|-----5---5-----5-----5---5-----5-|
 ||---2-------2-------2-------2-----|---2-------2-------2-------2-----|
 ||-------2-----2---------2-----2---|-------2-----2---------2-----2---|
 ||-0---------------0---------------|-0---------------0---------------|
 ||---------------------------------|---------------------------------|




   ,   .   ,   .   ,   .   ,   .     ,   .   ,   .   ,   .   ,   .
 |---------5---5-5---------5-------|---------------------------------|
 |-3-------3---3-3-3-------3-------|-3-----3---3---3---------3-------|
 |-0h2-----2---2---2p0-----0-------|-0-----0-0-0-0-0---------2-------|
 |-0-------0-------0-------0-------|-0h2-----2---2---2p0-0---0-------|
 |-0---------------0-------0-------|-0-------0---0---0---0h2---------|
 |-0---------------0---------------|-----------------------------0---|
 :                                 :                                 :
 :                                 :                                 :
 : ,   .   ,   .   ,   .   ,   .   : ,   .   ,   .   ,   .   ,   .   :
 |---------------------------------|---------------------------------|
 |-----5---5-----5-----5---5-----5-|-----5---5-----5-----5---5-----5-|
 |---2-------2-------2-------2-----|---2-------2-------2-------2-----|
 |-------2-----2---------2-----2---|-------2-----2---------2-----2---|
 |-0---------------0---------------|-0---------------0---------------|
 |---------------------------------|---------------------------------|




   ,   .   ,   .   ,   .   ,   .     ,   .   ,   .   ,   .   ,   .   
 |---------5---5-5---------5---5-5-|---------5---5-5---------5---5-5-|
 |-3-------3---3-3-3-------3---3-3-|-3-------3---3-3-3-------3---3-3-|
 |-0h2-----2---2---0h2-----2---2---|-0h2-----2---2---0h2-----2---2---|
 |-0-------0-------0-------0-------|-0-------0-------0-------0-------|
 |-0---------------0---------------|-0---------------0---------------|
 |-0---------------0---------------|-0---------------0---------------|
 :                                 :                                 : 
 :                                 :                                 :
 : ,   .   ,   .   ,   .   ,   .   : ,   .   ,   .   ,   .   ,   .   :
 |---------------------------------|---------------------------------|
 |-----5---5-----5-----5---5-----5-|-----5---5-----5-----5---5-----5-|
 |---2-------2-------2-------2-----|---2-------2-------2-------2-----|
 |-------2-----2---------2-----2---|-------2-----2---------2-----2---|
 |-0---------------0---------------|-0---------------0---------------|
 |---------------------------------|---------------------------------|




   ,   .   ,   .   ,   .   ,   .  2/4,   .   ,   .   
 |---------5---5-5---------5---5-5-|---------5---5-5-|
 |-3-------3---3-3-3-------3---3-3-|-3-------3---3-3-|
 |-0h2-----2---2---0h2-----2---2---|-0h2-----2---2---|
 |-0-------0-------0-------0-------|-0-------0-------|
 |-0---------------0---------------|-0---------------|
 |-0---------------0---------------|-0---------------|
 : As we grow      out of stones   : On  and on  and : 
 :                                 :                 :
 : ,   .   ,   .   ,   .   ,   .  2/4,   .   ,   .   :
 |---------------------------------|-----------------|
 |-----5---5-----5-----5---5-----5-|-----5---5-----5-|
 |---2-------2-------2-------2-----|---2-------2-----|
 |-------2-----2---------2-----2---|-------2-----2---|
 |-0---------------0---------------|-0---------------|
 |---------------------------------|-----------------|




 4/4,   .   ,   .   ,   .   ,   .     ,   .   ,   .   ,   .   ,   .   
 |----3-3---3---3-3---3-3-----3-3---|-------5-5-5-5---------5-5-5-5---|
 |----1-1---1---1-1---1-1-----1-1---|-3-----3-3-3-3---3-----3-3-3-3---|
 |------0---0---0-------0-------0---|-0h2-----2---2---0h2-----2---2---|
 |--2---2---2-------2---2---2---2---|-0-----------0---0-----------0---|
 |--0-------0-------0-------0-------|-0---------------0---------------|
 |--0---------------0-------0-------|-0---------------0---------------|
 :  on                              : So we'll all    go to bones     :
 :                                  :                                 :
 4/4,   .   ,   .   ,   .   ,   .   : ,   .   ,   .   ,   .   ,   .   :
 |----------------------------------|---------------------------------|
 |------3---3-----------3-------3---|-----5---5-----5-----5---5-----5-|
 |------0---0-----------0-------0---|---2-------2-------2-------2-----|
 |----0-----------0---0---0---0---0-|-------2-----2---------2-----2---|
 |--0---------------0-------0-------|-0---------------0---------------|
 |----------------------------------|---------------------------------|




 3/4,   .   ,   .   ,   .  4/4,   .   ,   .   ,   .   ,   .   
 |----------5-5-5-5---0-0---|-----2---------------2-------2---|
 |--3-------3-3-3-3---1-1---|-----3-------3-------3-------3---|
 |--0h2-----2---2-------0---|-----2-------2-------2-------2---|
 |--0-------0-------2---2---|-0---0-------0---0---0-------0---|
 |--0---------------0-------|-0---------------0---------------|
 |--0-----------------------|-0---------------0---------------|
 :  On  and on  for many a  : year                       And  :
 :                          :                                 :
 3/4,   .   ,   .   ,   .  4/4,   .   ,   .   ,   .   ,   .   :
 |--------------------------|---------------------------------|
 |------5---5-----5-3-----0-|-----2---2-----2-----2---2-----2-|
 |----2-------2-------0-----|---2-------2-------2-------2-----|
 |--------2-----2-------0---|-------2-----2---------2-----2---|
 |--0-----------------------|-0---------------0---------------|
 |--------------------------|---------------------------------|




   ,   .   ,   .   ,   .   ,   .     ,   .   ,   .   ,   .   ,   .   
 |-----2-----0---------------------|-----2-----------3p2-------------|
 |-----3-----3-----3---------3-----|-----------3---------3-----3-----|
 |-----2-----------0-----0-------0-|---------------2-------2h4---4p2-|
 |-----0-------0-------0-------0---|-----0-------0-------0-------0---|
 |-----------------2-------2-------|---------------------------------|
 |-0-------0-----------------------|-0-------0-------0-------0-------|
 : let  us     go  laughing        : oh                              :
 :                                 :                                 :
 : ,   .   ,   .   ,   .   ,   .   : ,   .   ,   .   ,   .   ,   .   :
 |---------------------------------|---------------------------------|
 |-----2---2-----2-----3---3-----3-|-----2---2-----2-----2---2-----2-|
 |---2-------2-------2-------2-----|---2-------2-------2-------2-----|
 |-------2-----2---------4-----4---|-------2-----2---------2-----2---|
 |-0---------------0---------------|-0---------------0---------------|
 |---------------------------------|---------------------------------|




   ,   .   ,   .   ,   .   ,   .     ,   .   ,   .   ,   .   ,   .   
 |-2---------0---------------------|-------2---------3p2-------------|
 |-----------------3-----3---------|-----------3-----------3-----0---|
 |-------2-------------------------|---2-----------2-----------2---2-|
 |-----0-------0-------0-------0---|-----0-------0-------0-------0---|
 |-----------------2-------0h2-----|---------------------------------|
 |-0-------0-----------------------|-0-------0-------0-------0-------|
 : Let  us  go                     :                             And :
 :                                 :                                 :
 : ,   .   ,   .   ,   .   ,   .   : ,   .   ,   .   ,   .   ,   .   :
 |---------------------------------|---------------------------------|
 |-----2---2-----2-----3---3-----3-|-----2---2-----2-----2---2-----2-|
 |---2-------2-------2-------2-----|---2-------2-------2-------2-----|
 |-------2-----2---------4-----4---|-------2-----2---------2-----2---|
 |-0---------------0---------------|-0---------------0---------------|
 |---------------------------------|---------------------------------|




   ,   .   ,   .   ,   .   ,   .  2/4,   .   ,   .   
 |---------5---5-5---------5---5-5-|---------5---5-5-|
 |-3-------3---3-3-3-------3---3-3-|-3-------3---3-3-|
 |-0h2-----2---2---0h2-----2---2---|-0h2-----2---2---|
 |-0-------0-------0-------0-------|-0-------0-------|
 |-0---------------0---------------|-0---------------|
 |-0---------------0---------------|-0---------------|
 : May  the holy   hermit's staff  : On  and on  and : 
 :                                 :                 :
 : ,   .   ,   .   ,   .   ,   .  2/4,   .   ,   .   :
 |---------------------------------|-----------------|
 |-----5---5-----5-----5---5-----5-|-----5---5-----5-|
 |---2-------2-------2-------2-----|---2-------2-----|
 |-------2-----2---------2-----2---|-------2-----2---|
 |-0---------------0---------------|-0---------------|
 |---------------------------------|-----------------|




 4/4,   .   ,   .   ,   .   ,   .     ,   .   ,   .   ,   .   ,   .   
 |----3-3---3---3-3---3-3-----3-3---|-------5-5-5-5---------5-5-5-5---|
 |----1-1---1---1-1---1-1-----1-1---|-3-----3-3-3-3---3-----3-3-3-3---|
 |------0---0---0-------0-------0---|-0h2-----2---2---0h2-----2---2---|
 |--2---2---2-------2---2---2---2---|-0-----------0---0-----------0---|
 |--0-------0-------0-------0-------|-0---------------0---------------|
 |--0---------------0-------0-------|-0---------------0---------------|
 :  on                              : Guide you to the shortest path  :
 :                                  :                                 :
 4/4,   .   ,   .   ,   .   ,   .   : ,   .   ,   .   ,   .   ,   .   :
 |----------------------------------|---------------------------------|
 |------3---3-----------3-------3---|-----5---5-----5-----5---5-----5-|
 |------0---0-----------0-------0---|---2-------2-------2-------2-----|
 |----0-----------0---0---0---0---0-|-------2-----2---------2-----2---|
 |--0---------------0-------0-------|-0---------------0---------------|
 |----------------------------------|---------------------------------|




 3/4,   .   ,   .   ,   .  4/4,   .   ,   .   ,   .   ,   .   
 |----------5-5-5-5---0-0---|-----2---------------2-------2---|
 |--3-------3-3-3-3---1-1---|-----3-------3-------3-------3---|
 |--0h2-----2---2-------0---|-----2-------2-------2-------2---|
 |--0-------0-------2---2---|-0---0-------0---0---0-------0---|
 |--0---------------0-------|-0---------------0---------------|
 |--0-----------------------|-0---------------0---------------|
 :  On  and on  for many a  : year                       And  :
 :                          :                                 :
 3/4,   .   ,   .   ,   .  4/4,   .   ,   .   ,   .   ,   .   :
 |--------------------------|---------------------------------|
 |------5---5-----5-3-----0-|-----2---2-----2-----2---2-----2-|
 |----2-------2-------0-----|---2-------2-------2-------2-----|
 |--------2-----2-------0---|-------2-----2---------2-----2---|
 |--0-----------------------|-0---------------0---------------|
 |--------------------------|---------------------------------|




   ,   .   ,   .   ,   .   ,   .     ,   .   ,   .   ,   .   ,   .   
 |-----2-----0---------------------|-----2-----------3p2-------------|
 |-----3-----3-----3---------3-----|-----------3---------3-----3-----|
 |-----2-----------0-----0-------0-|---------------2-------2h4---4p2-|
 |-----0-------0-------0-------0---|-----0-------0-------0-------0---|
 |-----------------2-------2-------|---------------------------------|
 |-0-------0-----------------------|-0-------0-------0-------0-------|
 : let  us     go  laughing        : oh                              :
 :                                 :                                 :
 : ,   .   ,   .   ,   .   ,   .   : ,   .   ,   .   ,   .   ,   .   :
 |---------------------------------|---------------------------------|
 |-----2---2-----2-----3---3-----3-|-----2---2-----2-----3---4---5---|
 |---2-------2-------2-------2-----|---2-------2-------2-------2---2-|
 |-------2-----2---------4-----4---|-------2-----2---------2---------|
 |-0---------------0---------------|-0---------------0---------------|
 |---------------------------------|---------------------------------|




   ,   .   ,   .   ,   .   ,   .     ,   .   ,   .   ,   .   ,   .   
 |-2---------0---------------------|-------2---------3p2-------------|
 |-----------------3-----3---------|-----------3-----------3-----0---|
 |-------2-------------------------|---2-----------2-----------2---2-|
 |-----0-------0-------0-------0---|-----0-------0-------0-------0---|
 |-----------------2-------0h2-----|---------------------------------|
 |-0-------0-----------------------|-0-------0-------0-------0-------|
 : Let  us  go                     :                             And :
 :                                 :                                 :
 : ,   .   ,   .   ,   .   ,   .   : ,   .   ,   .   ,   .   ,   .   :
 |---------------------------------|---------------------------------|
 |-----2---2-----2-----3---3-----3-|-----2---2-----2-----2---2-----2-|
 |---2-------2-------2-------2-----|---2-------2-------2-------2-----|
 |-------2-----2---------4-----4---|-------2-----2---------2-----2---|
 |-0---------------0---------------|-0---------------0---------------|
 |---------------------------------|---------------------------------|




   ,   .   ,   .   ,   .   ,   .     ,   .   ,   .   ,   .   ,   .   
 |-----2-----0---------------------|-----2-----------3p2-------------|
 |-----3-----3-----3---------3-----|-----------3---------3-----3-----|
 |-----2-----------0-----0-------0-|---------------2-------2h4---4p2-|
 |-----0-------0-------0-------0---|-----0-------0-------0-------0---|
 |-----------------2-------2-------|---------------------------------|
 |-0-------0-----------------------|-0-------0-------0-------0-------|
 : let  us     go  laughing        : oh                              :
 :                                 :                                 :
 : ,   .   ,   .   ,   .   ,   .   : ,   .   ,   .   ,   .   ,   .   :
 |---------------------------------|---------------------------------|
 |-----2---2-----2-----3---3-----3-|-----2---2-----2-----3---4---5---|
 |---2-------2-------2-------2-----|---2-------2-------2-------2---2-|
 |-------2-----2---------4-----4---|-------2-----2---------2---------|
 |-0---------------0---------------|-0---------------0---------------|
 |---------------------------------|---------------------------------|




   ,   .   ,   .   ,   .   ,   .     ,   .   ,   .   ,   .   ,   .   
 |-2---------0---------------------|-----0h2---------1p0------------||
 |-----------------3-----3---------|-----------3--------3-----------||
 |-------2-------------------------|---2-----------2-----4---4/7----||
 |-----0-------0-------0-------0---|-----0-------0------------------||
 |-----------------2-------0h2-----|--------------------------------||
 |-0-------0-----------------------|-0-------0---------------0------||
 : Let  us  go                     :                                ::
 :                                 :                                ::
 : ,   .   ,   .   ,   .   ,   .   : ,   .   ,   .   ,   .   ,   .  ::
 |---------------------------------|--------------------------------||
 |-----2---2-----2-----3---3-----3-|-----2---2----------------------||
 |---2-------2-------2-------2-----|---2-------------5p4------------||
 |-------2-----2---------4-----4---|-------2-----2-------4---4/7----||
 |-0---------------0---------------|-0-----------------------0------||
 |---------------------------------|--------------------------------||





Comments


Popular Cockburn Bruce tabs & chords
All The Diamonds Chords
Burden Of The Angel Beast Chords
Loner Chords
Waiting For The Moon Chords
Lovers In A Dangerous Time Tabs
Nature Of The Angel Beast Tabs
Someone I Used To Love Tabs
The Coldest Night Of The Year Tabs
Tokyo Tabs
Waiting For The Moon Tabs


Song lyrics



↑ Back to top | Tablatures and chords are parodies/interpretations of the original songs. You may use it for private study, scholarship, research or language learning purposes only
© 2014 AZChords.com Contact us | Privacy policy | DMCA | Add/correct tabs | Request tabs | Top 50 tabs