» » »

January In The Halifax Airport Lounge Tabs (ver.1)

Artists:  A B C D E F G H I J K L M N O P Q R S T U V W X Y Z # 

January In The Halifax Airport Lounge Tabs (ver.1)

Cockburn Bruce
Rating:
0/5 (0 votes)

Hard to play? Try these video lessons and learn fast.
                Lines: 161
X-Newsreader: Trumpet for Windows [Version 1.0 Rev A]

January in the Halifax Airport Lounge  - Bruce Cockburn
~~~~~~~~~~~~~~~~~~~~~~~~~~~~~~~~~~~~~

Drop-D tuning.
Capo 1st fret.

4/4 time.

   , . , . , . , .   , . , . , . , .   , . , . , . , .   , . , . , . , .
||-------0---------|-----0-----------|-----------------|------------------|
||-----7-----7-----|-3-----3---------|-3---------3-----|-----------3------|
||---6-------------|---4-------4-----|---------------2-|---------------2/-|
||-----7-------7\--|-----5-------5---|-----4-------4---|-----4-------4----|
||-0-------0-------|-0-------0-------|-----------------|------------------|
||-----------------|-----------------|-0-------0-------|-0-------0--------|



   , . , . , . , .   , . , . , . , .   , . , . , . , .   , . , . , . , .
|--------5---------|-----0-----------|-----------------|-----------------||
|----5h7-----7-----|-3-----3-----3---|-3-----3---------|-3-----3---------||
|-/6---------------|---4-------4-----|-----------2-4---|---4-------2-----||
|------7-------7---|-----5-------5---|-----4-------4---|-----4-------4---||
|--0-------0-------|-0-------0-------|---------0-------|---------0-------||
|------------------|-----------------|-0---------------|-0---------------||



    , . , . , . , .   , . , . , . , .   , . , . , . , .   , . , . , . , .
||--------0---------|-----------------|-----------------|-----------------|
||------7-----7-----|-3-----3---------|-----3-----3-----|-3-----3---------|
||*---6-------------|---4-------4-----|-------------4---|---4-------2-----|
||*-----7-------7---|-----5-------5---|-----4-------4---|-----4-------4---|
||--0-------0-------|-0-------0-------|---------0-------|---------0-------|
||------------------|-----------------|-0---------------|-0---------------|
              Distant times  in distant lands
            There's a crisis     in the outer world
           In life so delicate      and strange


  , . , . , . , .   , . , . , . , .   , . , . , . , .   , . , . , . , .
|-------0---------|-----------------|-----------------|-----------------|
|-----7-----7-----|-3-----3---------|-----3-----3-----|-3-----3---------|
|---6-------------|---4-------4-----|-------------2h4-|---4-------4p2---|
|-----7-------7---|-----5-------5---|-----4-------4---|-----4-------4---|
|-0-------0-------|-0-------0-------|---------0-------|---------0-------|
|-----------------|-----------------|-0---------------|-0---------------|
          Worthless money    changing hands
            In the sky the smoke trails curl
        Understanding seldom comes in range


  , . , . , . , .   , . , . , . , .   , . , . , . , .   , . , . , . , .
|-----------------|-----------------|-----2-----2-----|-2---------------|
|-------3---------|-------1---------|-----1-----1p0---|-1p0-------1-----|
|-------2---2-----|-------0---0-----|---------------2-|-------2---------|
|-------------3---|-------------2---|-----0-------0---|-----0-------0---|
|-----------------|-----------------|---------0-------|---------0-------|
|-3---3---3-------|-2---2---2-------|-0---------------|-0---------------|
    Changing them to what?          I wonder
      Some Winnipeg boys          are Cypress bound
        We stumble through   familiar scenes


  , . , . , . , .   , . , . , . , .   , . , . , . , .   , . , . , . , .
|-----------------|-----------------|-----2-----3-----|-2---------------|
|-------3---------|-------1---------|-----1-----1p0---|-1p0---1---------|
|-----2-----2-----|-------0---0-----|---------------2-|-----------2-----|
|---3---------3---|-------------2---|-----0-------0---|-----0-------0---|
|-----------------|-----------------|---------0-------|---------0-------|
|-3---3---3-------|-2---2---2-------|-0---------------|-0---------------|
          As in the dust  a jet plane thunder
       I hope they live to touch home ground
             Never thinking   what it means


  , . , . , . , .   , . , . , . , .   , . , . , . , .   , . , . , . , .
|-----------------|-----------------|-----------5-----|-7p5-------------|
|---3-------3-----|-6b--------6-----|-6/7-------------|------/7---------|
|-------4---------|-------7-------7-|-----------------|-----------7-----|
|-----5-------5---|-----8-------8---|-----0-------0---|-----0-------0---|
|-----------------|-----------------|---------0-------|---------0-------|
|-5-------5-------|-8-------8-------|-0---------------|-0---------------|
  Carries every     feeling into      blue
  I hope we live to touch if just once more
  In this cluttered landscape  to be  loved


  , . , . , . , .   , . , . , . , .   , . , . , . , .   , . , . , . , .
|-------0---------|-----------------|-----------------|-----------------||
|-----7-----7-----|-3-----3---------|-3-----3---3-----|-----3-3---------||
|---6-------------|---4-------4-----|-----------------|-2h4-------4p2---||
|-----7-------7---|-----5-------5---|-----4-------4---|-----4-------4---||
|-0-------0-------|-0-------0-------|---------0-------|---------0-------||
|-----------------|-----------------|-0---------------|-0---------------||
  I miss you        like I miss the   flowers in bloom
  I need you        like the river    needs the shore
  I need you        like I need the   stars above

 ...........................................................................
  1,2.
   , . , . , . , .   , . , . , . , .   , . , . , . ,   .   , . , . , . , .
||---------0-------|-------0---------|-------------7p5---|-7p5-------------|
||-----3-----3-----|-6---6-----6-----|-6b7------------h7-|-------6b--------|
||---4-------------|---7-----------7-|-------------------|-----------7-----|
||-----5-------5---|-----8-------8---|-----0-------0-----|-----0-------0---|
||-----------------|-----------------|---------0---------|---------0-------|
||-5-------5-------|-8-------8-------|-0-----------------|-0---------------|


...........................................................................
(1,2)                                                                     |
  , . , . , . , .   , . , . , . , .   , . , . , . , .   , . , . , . , .   |
|-------5---------|-----0-----------|-----------------|------------------||
|-----7-----7-----|-3-----3-----3---|-3-----3---------|-3-----3----------||
|---6-------------|---4-------4-----|-----------2-4---|---4-------2-----*||
|-----7-------7---|-----5-------5---|-----4-------4---|-----4-------4---*||
|-0-------0-------|-0-------0-------|---------0-------|---------0--------||
|-----------------|-----------------|-0---------------|-0----------------||


 ...................
  3.
   , . , . , . , .   , . , . , . , .   , . , . ,   . , .   ,  . , . , . , .
||---------0-------|-------0---------|-----5---7p5---5---|-10---------------|
||-----3-----3-----|-6---6-----6-----|-6b7--------h7---7-|---10b---7--------|
||---4-------------|---7-----------7-|-------------------|-------------7----|
||-----5-------5---|-----8-------8---|-----0---------0---|-------0-------0--|
||-----------------|-----------------|---------0---------|-----------0------|
||-5-------5-------|-8-------8-------|-0-----------------|--0---------------|



  , . , . , . , .   , . , . , . , .   , . , . , . , .   , . , . , . , .
|-------0---------|-----------------|-----------------|-----------------|
|-----7-----7-----|-3-----3-----3---|-3-----3---------|-3-----3---------|
|---6-------------|---4-------4-----|-----------2-4---|---4-------2-----|
|-----7-------7---|-----5-------5---|-----4-------4---|-----4-------4---|
|-0-------0-------|-0-------0-------|---------0-------|---------0-------|
|-----------------|-----------------|-0---------------|-0---------------|
    I need you      like I need the   stars above


  , . , . , . , .   , . , . , . , .   , . , . , . , .   , . , . , . , .
|-------5---------|-----0-----------|-----------------|-----------------||
|-----7-----7-----|-3-----3-----3---|-3---------------|-3---------------||
|---6-------------|---4-------4-----|-----4---2-4-----|-2---------------||
|-----7-------7---|-----5-------5---|-----4-----------|-4---------------||
|-0-------0-------|-0-------0-------|---------0-------|-----------------||
|-----------------|-----------------|-0---------------|-0---------------||



   \\\\   John Kean
   OO |   ~~~~~~~~~
   \/ | 
   `-
            
Hard to play? Try these video lessons and learn fast. | Correct




comments powered by Disqus
↑ Back to top | Tablatures and chords are parodies/interpretations of the original songs. You may use it for private study, scholarship, research or language learning purposes only