>
 >
Foxglove 1

Foxglove 1 Guitar Tabs

Cockburn Bruce - Foxglove 1 chords, tabs, tablatures, lyrics

Guitar lessons | Add/correct | Request | Top 50 tabs Artists:  A B C D E F G H I J K L M N O P Q R S T U V W X Y Z 0-9

Foxglove 1 Guitar Tabs – Cockburn Bruce

CD, Sheet music, Poster

Do you like Foxglove 1? Share with your friends now
TabsTabs v2
Foxglove - Bruce Cockburn, Open C tuning (CGCGCE), capo II
 --------

Here's a pretty little ditty from the True North album 'Nightvision'.
FYI, 'The Blues got the World...' (by the balls) on the same album is also
in open C (capo V).  Maybe I'll get energetic and tab it too.  Maybe not.

and (more importantly) finding the right tuning.


  Intro                                Section I
 |-----------------|-----------------||-8---0---8---0---|-5---5-----0-----|
 |-----------------|-----------------||---7---0---7---0-|---5---7-------0-|
 |-----------------|-----------------||*----------------|-----------------|
 |-----0-------0---|-----0-------0---||*----0-------0---|-----5-------0---|
 |-----------------|-----------------||-----------------|-----------------|
 |-0-------0-------|-0-------0-------||-0-------0-------|-5-------0-------|
   |   |   |   |     |   |   |   |      |   |   |   |     |   |   |   |

                      hp
 |-8---0---8---0---|-565--5-----0-----|-----------2-----|-3p2---------2---|
 |---7---0---7---0-|----5---7-------0-|-----2-----------|-----4---2h4---4-|
 |-----------------|------------------|---2---2-------2-|-------2---------|
 |-----0-------0---|------5-------0---|-----2-------2---|-----2-------2---|
 |-----------------|------------------|-----------------|-----------------|
 |-0-------0-------|-5--------0-------|-2-------2-------|-2-------2-------|
   |   |   |   |     |    |   |   |     |   |   |   |     |   |   |   |


  /---------- 1st Ending -----------\  /---------- 2nd Ending -----------\

 |-------0---------|-----------------||-------0-----010-|-0---------------|
 |s7---------7-----|-7-------------0-||s7-------------2-|-----------------|
 |---------------0-|----------------*||-----------0-----|-----------------|
 |-----0-------0---|-----0-------0--*||-----0-------0---|-----0-------0---|
 |-----------------|-----------------||-----------------|-----------------|
 |-0-------0-------|-0-------0-------||-0-------0-------|-0-------0-------|
   |   |   |   |     |   |   |   |      |   |   |   |     |   |   |   |


  Section II
 |-0-----0-----0---|---0-----0-----0-|-----0-----0-----|-0-----0-----0---|
 |---0-----0-----0-|-----0-----0-----|-0-----0-----0---|---0-----0-----0-|
 |-----7-----7-----|-7-----7-----7---|---5-----5-----5-|-----5-----5-----|
 |-----7-------7---|-----7-------7---|-----5-------5---|-----5-------5---|
 |-5-------5-------|-5-------5-------|-3-------3-------|-3-------3-------|
 |-----------------|-----------------|-----------------|-----------------|
   |   |   |   |     |   |   |   |     |   |   |   |     |   |   |   |


                                                        Repeat this meas.
 |---0-----0-----0-|-----0-----0-----|-1p0-------------|-----0-------0---|
 |-----0-----0-----|-0-----0-----0---|-----2p0------pp-|-----0-------0---|
 |-4-----4-----4---|---4-----4-----4-|-----0---2p0-420-|-----0-----0-0---|
 |-----4-------4---|-----4-------4---|-----------------|-0---0-----0-0---|
 |-2-------2-------|-2-------2-------|-0-------0-------|-----------------|
 |-----------------|-----------------|-----------------|-0-------0-------|
   |   |   |   |     |   |   |   |     |   |   |   |     |   |   |   |


  Section III
||-----3---5---3---|-8---5---0-------|-----3---5---0---|--pp-------------||
||-2s----0---4---0-|---7---0---------|-2s----0---4---0-|-420-----0-------||
||*----------------|-----------------|-----------------|-----2p0--------*||
||*----0-------0---|-----0-------0---|-----0-------0---|-----0-------0--*||
||-----------------|-----------------|-----------------|-----------------||
||-0-------0-------|-0-------0-------|-0-------0-------|-0-------0-------||
   |   |   |   |     |   |   |   |     |   |   |   |     |   |   |   |


  Section IV
 
|-12p0--10p0--8p0--7p0--|-5p0--3p0--0------|-1p0---------0--|-5-------5-----|
 
|-----0-----0----0----0-|----0----0--------|-----2---2h2----|---------------|
 
|-----------------------|----------------3-|-------3--------|-------------5-|
 
|-------0----------0----|------0-------0---|-----0-------0--|----5------5---|
 
|-----------------------|------------------|----------------|---------------|
 
|-0-----------0---------|-0---------0------|-0-------0------|-5-----5-------|
   |     |     |    |      |    |    |  |     |   |   |   |    |  |  |   | 



 |-6p5---------5---|---0-------------|---------------7-|-------10--------|
 |-----7---5h7---5-|-7-----7---------|-------7---------|---------------0-|
 |-------5---------|-----------------|-7-7-------7-----|---7-------7-----|
 |-----5-------5---|-----0-------0---|-----7-------7---|-----7-------7---|
 |-----------------|-----------------|-0-------0-------|-0-------0-------|
 |-5-------5-------|-0-------0-------|-----------------|-----------------|
   |   |   |   |     |   |   |   |     |   |   |   |     |   |   |   |


  Repeat Section I  with 2nd  ending
  Repeat Section II with this ending:

 |-1p0-------------|-----12----------||
 |-----2p0------pp-|---------12------||
 |-----0---2p0-420-|-----12----------||
 |-----------------|-0-------12------||
 |-0-------0-------|-----------------||
 |-----------------|-0---------------||
   |   |   |   |     |   |   |   |
                        \______/
                        harmonics





Comments


Popular Cockburn Bruce tabs & chords
All The Diamonds Tabs
All The Ways I Want You Tabs
Foxglove Tabs
Sunrise On The Mississippi 1 Tabs
The Coldest Night Of The Year Tabs
They Call It Democracy Tabs
Train In The Rain Tabs
Waiting For The Moon Tabs
Wondering Where The Lions Are 1 Tabs
You Point To The Sky 1 Tabs


Song lyrics



↑ Back to top | Tablatures and chords are parodies/interpretations of the original songs. You may use it for private study, scholarship, research or language learning purposes only
© 2014 AZChords.com Contact us | Privacy policy | DMCA | Add/correct tabs | Request tabs | Top 50 tabs