» » »

I Wish You Well Chords (ver.1)

Artists:  A B C D E F G H I J K L M N O P Q R S T U V W X Y Z # 

I Wish You Well Chords (ver.1)

Cochrane Tom
Rating:
0/5 (0 votes)

Hard to play? Try these video lessons and learn fast.
                I Wish You Well 
By
Tom Cochrane
The song starts with this riff:
Played on a clean electric

e|----5------5-----5-----5-----3-----3-----3-----3---------------|
b|--3------3-----3-----3-----3-----3-----3-----3-----------------|
g|---------------------------------------------------------------|
d|-0-----0-----0-----0-----0-----0-----0-----0-------------------|
a|---------------------------------------------------------------|
E|---------------------------------------------------------------|

After that the song is just these chords:

D
I'm gonna check my scars at home
G
gonna cash my chips and roam
D                                 G                 A
gonna walk before you fade to black.
D
Gonna write a new resume
G
gonna write you off the page 
D                                     G              A
gonna take what we might take away.
A
And you might find a brighter day
G
you might find a brighter day. oh
D                              G
And in another year.  The pain will disappear
D                                                     G            A     
And I will look back on this life as if it were a scene.
A
Somebody wrote about you and me
G
Somebody made about you and me
D
I wish you well.

This is the entire song except for a little riff that follows the chorus
And it is:

|---------------------------|------------|
|---------------------------|------------|
|--2-0----------------------|-2-0--------|
|-------4-2-0-2-2h4p2-0-----|-----4-2-0--|
            
Hard to play? Try these video lessons and learn fast. | Correct




comments powered by Disqus
↑ Back to top | Tablatures and chords are parodies/interpretations of the original songs. You may use it for private study, scholarship, research or language learning purposes only