» » »

Cn Blue, Im A Loner Tabs (ver.1)

Artists:  A B C D E F G H I J K L M N O P Q R S T U V W X Y Z # 

Im A Loner Tabs (ver.1)

Cn Blue Tabs
Rating:
0/5 (0 votes)
Im A Loner lessons Tabs too difficult? Try these video lessons and learn fast
                I didn't see a good version since no one listens to kpop or krock here.
So I made this one.

I put the chords on top of the tab being played.
It is meant to be played with two guitars.
It sounds alright if you paly the chords alone, 
but you need to play the tab with a partner or a guitar backing track.
Listen to the song for the rhythm.
Enjoy. 
-aldrincb





Intro
Oetoriya (x4)

  Dm                  Bb          C                   F     A
e|-------------------|-----------|-------------------|-----------|
B|---------6-6-------|-----------|---------5-5-------|-----------|
G|---7-5-7-----7-5-7-|-----------|---5-3-5-----5-3-5-|-----------|
D|-7-----------------|-8-8-8-7-8-|-5-----------------|-7-7-7-5-7-|
A|-------------------|-----------|-------------------|-----------|
E|-------------------|-----------|-------------------|-----------|

  Dm                  Bb          C        A          Dm     
e|-------------------|-----------|-------------------|-----------|
B|---------6-6-------|-----------|-----------------5-|-----------|
G|---7-5-7-----7-5-7-|-----------|---5-3-5-6-6---6---|-7-7-7-5-7-|
D|-7-----------------|-8-8-8-7-8-|-5-----------7-----|-----------|
A|-------------------|-----------|-------------------|-----------|
E|-------------------|-----------|-------------------|-----------|

Play this twice.




Verse
Bwabwa nareul bwabwa ttokbaro nae du nuneul bwa
Geobwa imi neoneun ddan goseul bogo isseo
Check it one two three sigyebaneulman chyeoda boneun gae
Mal an haedo dareun saram saenggingeol ara

  Dm            Bb            C             F      A
e|-------------|-------------|-------------|-------------|
B|-------------|-------------|-------------|-6-6-6---6-5-|
G|---5-7---5-7-|-------------|---3-5---3-5-|-------7-----|
D|-7-----7-----|-8-8-8-8-7-8-|-5-----5-----|-------------|
A|-------------|-------------|-------------|-------------|
E|-------------|-------------|-------------|-------------|

  Dm            Bb            C         A         Dm 
e|-------------|-------------|-------------------|---|
B|-------------|-------------|-------------5-5-6-|-7-|
G|---5-7---5-7-|-------------|---3-5-----6-----7-|-7-|
D|-7-----7-----|-8-8-8-8-7-8-|-5-----5-7---------|---|
A|-------------|-------------|-------------------|---|
E|-------------|-------------|-------------------|---|





Rap
Yojeum neon na anin dareun saramgwa mannami jatdeora
Ijeneun meonjeo jeonhwado geolji andeora
Narang isseul ttaeneun haruga 1chorado neon Nae apeseo yojeum haneulman bodeora
Oh~ I know your mind imi neowa naui geori
Meoreojin geurigo beoreojin namboda motan uri sai

e|-10----10-|-6---6-|-8---8-|-5---5-5---5-|
B|----10----|---6---|---8---|---6-----5---|
G|----------|-------|-------|-------------|
D|----------|-------|-------|-------------|
A|----------|-------|-------|-------------|
E|----------|-------|-------|-------------|

e|-10----10-|-6---6-|-8---8-9----9-|----------------|
B|----10----|---6---|---8-----10---|-13b-13b-8b-8-6-|
G|----------|-------|--------------|----------------|
D|----------|-------|--------------|----------------|
A|----------|-------|--------------|----------------|
E|----------|-------|--------------|----------------|





Chorus
Oh baby
Oetoriya oetoriya Ddaribiriddaradu
Oetoriya oetoriya Ddaribiriddaradu
Oetoriya oetoriya Sarange seulpeohago
Sarange nunmuljitneun oetori
Sad (x6) tonight, Gaseumi apa
Oh no no no no no body knows, Mam molla
One two three four five six seven night
Su manheun bameul, Seumyeo nareul dallaego isseo

  Dm                  Bb          C                   F     A
e|-------------------|-----------|-------------------|-----------|
B|---------6-6-------|-----------|---------5-5-------|-----------|
G|---7-5-7-----7-5-7-|-----------|---5-3-5-----5-3-5-|-----------|
D|-7-----------------|-8-8-8-7-8-|-5-----------------|-7-7-7-5-7-|
A|-------------------|-----------|-------------------|-----------|
E|-------------------|-----------|-------------------|-----------|

  Dm                  Bb          C        A          Dm     
e|-------------------|-----------|-------------------|-----------|
B|---------6-6-------|-----------|-----------------5-|-----------|
G|---7-5-7-----7-5-7-|-----------|---5-3-5-6-6---6---|-7-7-7-5-7-|
D|-7-----------------|-8-8-8-7-8-|-5-----------7-----|-----------|
A|-------------------|-----------|-------------------|-----------|
E|-------------------|-----------|-------------------|-----------|

Play this four times.


Verse
Chorus

Solo
e|----------------------------|------------------|
B|--8--8b9b8--6--8--8b9b8--6--|--8--8b9b8--6-----|
G|--9--9------7--9--9------7--|--9--9------7--7--|
D|----------------------------|---------------7--|
A|----------------------------|------------------|
E|----------------------------|------------------|

e|----------------------------|--10--12--13--15--|
B|--8--8b9b8--6--8--8b9b8--6--|--13--13--16--18--|
G|--9--9------7--9--9------7--|------------------|
D|----------------------------|------------------|
A|----------------------------|------------------|
E|----------------------------|------------------|

This part is palm muted barchords:
I dont actually know when the chord changes happen with the lyrics
because he is rapping, but just play them 1 bar each.

Bb           A
Sarangi gane sarangi ddeonane

Dm
Han sarameul geurigo han sarangeul

Cm                      F at 8th fret
Naegeneun iksukhaetdeon modeun geotdeureul

Bb
I bami gamyeon neol jiwoyagetji

A                     Dm
Geurae na eokjirorado neoreul jiwoyagetji 

A
nal beorin neol saenggakhamyeon geuraeyagetji

G   A     Bb   B 
(Gone Gone my love is gone)




Chorus Except 1 step higher
I dont think I need to tab that.

The End
            
Submit corrections

comments powered by Disqus
↑ Back to top | Cn Blue Tabs for Im A Loner. Lyrics for acoustic guitar and electric guitar. Tablatures and chords are parodies/interpretations of the original songs. You may use it for private study, scholarship, research or language learning purposes only