>
 >
Because I Miss You

Because I Miss You Guitar Tabs

Cn Blue - Because I Miss You chords, tabs, tablatures, lyrics

Guitar lessons | Add/correct | Request | Top 50 tabs Artists:  A B C D E F G H I J K L M N O P Q R S T U V W X Y Z 0-9

Because I Miss You Guitar Tabs – Cn Blue

CD, Sheet music, Poster

Do you like Because I Miss You? Share with your friends now
ChordsChords v2TabsUkulele
Original: Jung Yong Hwa
Arrangement: JOOLEE DIEP
 Q=65
  Gtr I
  E E E Q.   E E   E Q.   E E E E   E E E E E Q.
|-------0--------|---0------------|-----------0----|
|-----3----------|-0--------------|-----1---1------|
|---0------------|------------0---|---0-0----------|
|----------------|----------2-----|-0-----2--------|
|-3------------2-|--------0-----2-|-----3----------|
|------------3---|----------------|----------------|


  E E E E E E E E   E Q.  E E E E E E   H.
|-----------------|---0---1-----1-----|-3-----|
|-1-----0-----1---|-------3---3---3---|-3-----|
|-2---2-----0-2---|-2-----2-2-------2-|-0-----|
|---3---2-2-----2-|-------0-----------|-------|
|-3-----2-----0---|-------------------|-2-----|
|-----------------|-------------------|-------|


  E E E E E E E E   E Q.   E E E E   E S S E E E Q.
|-0-----0-1-3-5---|-3--------------|---3s5-3-----3----|
|-1---1-------3---|-3-3----1-----0-|-1-----3---3------|
|-0-0---------4-4-|---4----2---2---|-------0-0--------|
|-----------------|----------2-----|------------------|
|-3-----------5---|-5-5----0-------|-------2----------|
|-----------------|----------------|------------------|


  |--3--|  |--3--|
  E. E. E. E. E. E. E E   E Q.   E E E E   E E E E E Q.
|-----------------------|--------1---1-1-|-0---------3----|
|-1--------0--0--0--0---|---1----3-------|---1-3---3------|
|-2--2--2--0--0--0--0---|-0-2------2-----|-----0-0--------|
|-3--3--3-----------2-2-|--------0-----0-|----------------|
|-3--3--3--2--2--2--2---|---0------------|----------------|
|-----------------------|----------------|-----3----------|


  E E E E E E E E   E Q.   E E E E   E S S E E E Q.
|-0-----0-1-3-5---|-3--------------|---3s5-3-----3----|
|-1---1-------3---|-3-3----1-----0-|-1-----3---3------|
|-0-0---------4-4-|---4----2---2---|-------0-0--------|
|-----------------|----------2-----|------------------|
|-3-----------5---|-5-5----0-------|-------2----------|
|-----------------|----------------|------------------|


  |--3--|  |--3--|
  E. E. E. E. E. E. E E   E Q.   E E E E   E E E E E Q.
|-----------------------|--------1---1-1-|-0---------3----|
|-1--------0--0--0--0---|---1----3-------|---1-3---3------|
|-2--2--2--0--0--0--0---|-0-2------2-----|-----0-0--------|
|-3--3--3-----------2-2-|--------0-----0-|----------------|
|-3--3--3--2--2--2--2---|---0------------|----------------|
|-----------------------|----------------|-----3----------|


  E E E E E E E E   E E E E E E E E   E E E E E E E E
|-0---0-0-----3---|---3-------------|-----0-----0-----|
|-1---1-1-3-1-3---|-3---3---1-1-1-1-|-0---0---0---0-1-|
|---0---------0-0-|-------0-2---2-2-|---2---0---------|
|-----------------|-----------------|-----------------|
|-3---3-3---------|---------0---0-0-|-----2-----------|
|-------------3---|-----------------|-----------------|


  E E E E E E E E   E E E E E E E E   E E E E E E E E
|-----------------|-------0-1---1-1-|-0---------3------|
|-------1-0-1-----|---1-3---3---3-3-|---1-3---3---3----|
|-2---2-------0---|-0-------2-2-2-2-|-----0-0-------0--|
|-3-3---------2-2-|---------0---0-0-|------------------|
|-3-----------3---|-----------------|------------------|
|-----------------|-----------------|-----3------------|


  E E E E E E E E   E E E E E E E E   E E E E E E E E
|-0---0-0-----3---|---3-------------|-----0-----0-----|
|-1---1-1-3-1-3---|-3---3---1-1-1-1-|-0---0---0---0-1-|
|---0---------0-0-|-------0-2---2-2-|---2---0---------|
|-----------------|-----------------|-----------------|
|-3---3-3---------|---------0---0-0-|-----2-----------|
|-------------3---|-----------------|-----------------|


  E E E E E E E E   E E E E E E E E   E E Q.  E E
|-----------------|-------0-1---1-1-|-3-0------------|
|-------1-0-1-----|---1-3---3---3-3-|-----3---1-0----|
|-2---2-------0---|-0-------2-2-2-2-|-----0----------|
|-3-3---------2-2-|---------0---0-0-|----------------|
|-3-----------3---|-----------------|----------------|
|-----------------|-----------------|-----3----------|


  E E E Q.   E E   E Q.   E E E E   E E E E E Q.
|-------0--------|---0------------|-----------0----|
|-1---3----------|-0--------------|-----1---1------|
|-0-0------------|------------0---|---0-0----------|
|----------------|----------2-----|-0-----2--------|
|-3------------2-|--------0-----2-|-----3----------|
|------------3---|----------------|----------------|


  E E E E E E E E   E Q.  E E E E E E   H.
|-----------------|---0---1-----1-----|-3-----|
|-1-----0-----1---|-------3---3---3---|-3-----|
|-2---2-----0-2---|-2-----2-2-------2-|-0-----|
|---3---2-2-----2-|-------0-----------|-------|
|-3-----2-----0---|-------------------|-2-----|
|-----------------|-------------------|-------|


  S S S S S S E E E E E   E Q.   E E E E
|-----------------0-3-0-|--------1-0---1-|
|-1-1-1-1-1-1-1-3---3---|-3-1----1---1-1-|
|-2-2-2-2-2-2-2---------|---2----2-----2-|
|-----------------------|----------------|
|-0-0-0-0-0-0-0-----2---|---0----3-----3-|
|-----------------------|----------------|


  E E H.      Q    E E E E E E E E   E E E E
|-0---3----------|-0---0-0-----3---|---0-3-1---|
|---1-3----------|-1---1-1-3-1-3---|-3---------|
|-----0----------|---0-----------0-|-----------|
|----------------|-----------------|-----------|
|-----2----------|-3---3-3---------|-----------|
|----------------|-------------3---|-----------|


  E E E E E E E E   E E E E E E E E   E E E E E E E E   E E E E E E E E
|-------------0---|---0-------------|---------------0-|-1---1-1-0-------|
|-1-1-1-1-0---0---|-0---0-1-------1-|-0-1-------1-3---|-3---3-3---1-3---|
|-2---2-2---2-0-0-|---------2---2---|-----0---0-------|-2-2-2-2-----0-0-|
|-----------------|---------3-3-----|-----2-2---------|-0---0-0---------|
|-0---0-0-----2---|---------3-------|-----3-----------|-----------------|
|-----------------|-----------------|-----------------|-------------3---|


  E Q.   E E E E   E E E E E E E E   E E E E E E E E
|---3----0---0-0-|-----3-----0-3-1-|--------------------|
|-3------1---1-1-|-3-1-3---3-------|-1-1-1-1-0---0------|
|----------0-----|-------0---------|-2---2-2---0-0-0----|
|----------------|-----------------|--------------------|
|--------3---3-3-|-----------------|-0---0-0-----2------|
|----------------|-----3-----------|--------------------|


  E E E E E E E E   E E E E E E E E   E E E E E E Q.     E. E. H.
|---0-------------|-----------------|-1---1-1-3-0------|-------------|
|-0---0-1-------1-|-0-1-------------|-3---3-3-----3----|-1--0--1-----|
|---------2---2---|-----0---0-------|-2-2-2-2-----0----|-------0-----|
|---------3-3-----|-----2-2-----0-2-|-0---0-0----------|-------2-----|
|---------3-------|-----3-----3-----|------------------|-------3-----|
|-----------------|-----------------|-------------3----|-------------|





Comments


Popular Cn Blue tabs & chords
Because I Miss You Chords
Im A Fool Chords
Im A Loner Chords
Love In The Rain Chords
Still In Love Tabs
Because I Miss You Ukulele
Coffee Shop Ukulele
Intuition Ukulele
Lalala Ukulele
Ring Ukulele


Song lyrics



↑ Back to top | Tablatures and chords are parodies/interpretations of the original songs. You may use it for private study, scholarship, research or language learning purposes only
© 2014 AZChords.com Contact us | Privacy policy | DMCA | Add/correct tabs | Request tabs | Top 50 tabs