» » »

Were Goin In Were Going Down Tabs (ver.1)

Artists:  A B C D E F G H I J K L M N O P Q R S T U V W X Y Z # 

Were Goin In Were Going Down Tabs (ver.1)

Cloudkicker
Rating:
5/5 (5 votes)

Hard to play? Try these video lessons and learn fast.
                B F# B E G# C#


A intro:
-----------------|-----------------||-----------------------------------------|
-----------------|-----------------||-----------------------------------------|
-----------------|-----------------||-----------------------------------------|
---------14-14p0-|---------15-15p0-||-----------------------------------------|
-----------------|-----------------||-----------------------------------------|
-0h12-12---------|-0h12-12---------||-----------------------------------------|
                 |
x4               |x1


------------------||----------------------------------------------------------|
------------------||----------------------------------------------------------|
---------14-14p0--||----------------------------------------------------------|
------------------||----------------------------------------------------------|
------------------||----------------------------------------------------------|
-0h12-12----------||----------------------------------------------------------|

play this^ on 2nd repeat


L guitar plays this the last time before next riff:
------------------------------------------------------------------------------|
------------------------------------------------------------------------------|
------------------------------------------------------------------------------|
------------------------------------------------------------------------------|
---------15-15p0---------15-15p0---------12-12p0---------12-12p0--------------|
-0h12-12---------0h12-12---------0h12-12---------0h12-12----------------------|



B riff:
------------------------------------------------------------------|-----------|
------------------------------------------------------------------|-----------|
------------------------------------------------------------------|-----------|
---------15-15p0-14p0-12p0----------------------------8-8h10------|-----------|
-----------------------------------15-15p0-12p0--------------8p0--|-----------|
-0h12-12-------------------0h10-10--------------0h8-8-------------|-----------|


----------------||---------------------||-------------------------------------|
----------------||---------------------||-------------------------------------|
----------------||---------------------||-------------------------------------|
-----3h5--------||-----3h5---------5h7-||-------------------------------------|
---------3p0----||---------3p0---------||-------------------------------------|
-0h3---------h5-||-0h3---------0h5-----||-------------------------------------|



C transition to build riff: 1-1a-1-1-------------------------------------------|b (2x)
----------------------------||------||--------||-------------------------------|
---10-10-10------10-10-10---||------||--------||-------------------------------|
---9--9--9-------9--9--9----||------||--------||-------------------------------|
-0-7--7--7---8-0-7--7--7--8-||-8-10-||-8-10-8-||-------------------------------|
-0-----------8-0----------8-||-8-10-||-8-10-8-||-------------------------------|
-0-----------8-0----------8-||-8-10-||-8-10-8-||-------------------------------|
                            ||      ||
1                           ||a     ||b



D riff: 1a-1b-1a-1c-1a-1b-1a-[1d] (4x) [1e] third time
R guitar
-----------------------|----|------|--------|-----------|---------------|-----|
-----------------------|----|------|--------|-----------|---------------|-----|
-----------------------|----|------|--------|-----------|---------------|-----|
-----------------------|----|------|--------|-----------|---------------|-----|
-----------------------|----|----7-|----7-5-|----7-5----|---------------|-----|
-8-7-0-7-0-7-7-7-0-7-0-|-6^-|-6^---|-6^-----|-6^-----4^-|--4-4^--4-4^-4-|-----|
         x       x   x |    |      |        |           |
1                      |a   |b     |c       |d          |e

L guitar (same sequence)
-----------------------|----|------|--------|----------|--------------|-------|
-----------------------|----|------|--------|----------|--------------|-------|
-----------------------|----|------|--------|----------|--------------|-------|
-----------------------|----|------|------3-|------3---|--------------|-------|
-----------------------|----|----3-|----3---|----3-----|--------------|-------|
-8-7-0-7-0-7-7-7-0-7-0-|-3^-|-3^---|-3^-----|-3^-----0-|-0-0---0-0--0-|-------|
         x       x   x

E strum this chord for transition to modified intro:
-0----------------------------------------------------------------------------|
-6----------------------------------------------------------------------------|
-9----------------------------------------------------------------------------|
-8----------------------------------------------------------------------------|
------------------------------------------------------------------------------|
-8----------------------------------------------------------------------------|


F modified intro: 1x4-2x2-3x2
R guitar
-----------------|-------------|---------------||-----------------------------|
-----------------|-------------|---------------||-----------------------------|
-----------------|-------------|---------------||-----------------------------|
---------12-12p0-|-------3-3p0-|-------10-10p0-||-----------------------------|
-----------------|-------------|---------------||-----------------------------|
-0h12-12---------|-0h3-3-------|-0h8-8---------||-----------------------------|
                 |             |
1                |2            |3

L guitar (same sequence)
-----------------|-------------|-------------||-------------------------------|
-----------------|-------------|-------------||-------------------------------|
-----------------|-------------|-------------||-------------------------------|
---------12-12p0-|-------7-7p0-|-------7-7p0-||-------------------------------|
-----------------|-------------|-------------||-------------------------------|
-0h12-12---------|-0h3-3-------|-0h8-8-------||-------------------------------|


-B riff reprise
-strum E 2x longer at end

This is Directly from Ben, figured is share it with all the Cloudkicker fans out there 
than keep it to myself. Enjoy!
            
Hard to play? Try these video lessons and learn fast. | Correct




comments powered by Disqus
↑ Back to top | Tablatures and chords are parodies/interpretations of the original songs. You may use it for private study, scholarship, research or language learning purposes only