» » »

Cloudkicker, Tip Your Van Driver Tabs (ver.1)

Artists:  A B C D E F G H I J K L M N O P Q R S T U V W X Y Z # 

Tip Your Van Driver Tabs (ver.1)

Cloudkicker Tabs
 Rating:
4/5 (5 votes)
Tip Your Van Driver lessons Tabs too difficult? Try these video lessons and learn fast
1
                x = palm mute, ^ = bend, / = slide up, \ = slide down

tuning = B f# b e g# c#

here are the lead guitar parts. on most of the riffs i have not tabbed them
out fully, but have given you enough to deduce the rest.


                                    ending 1               then add this end 2
------------------|---------------|---------------------||--------------------|
----8--------8----|----8-------8--|---------------------||--------------------|
----7--------7----|----7-------7--|----10-------12------||--------------------|
------------------|--5---5-0-5----|-8--10--8-10-12--3-8-||-1------------------|
------------------|--5---5-0-5----|-8------8-10-----3-8-||-1------------------|
-5^---5-0-5^------|--5---5-0-5----|-8------8-10-----3-8-||-1------------------|


china part:
                 guitar L end 1&2  ||guitar R end 2
----------------|------------------||-----------------------------------------|
----------------|------------------||-----------------------------------------|
----------------|------------------||---8-------------------------------------|
----8--------7--|---10------12---7-||---------------3-------------------------|
----------------|------------------||----------13-----------------------------|
-5^---5-0-5^----|-8----8-10----3---||-8---8-10----3---1^----------------------|

double bass part:

------------------------------------------------------------------------------|
------------------------------------------------------------------------------|
------------------------------------------------------------------------------|
-----8-----7---------8-----7---------10---------8-----7---------8-----7-------|
------------------------------------------------------------------------------|
-5-5---5-5---5-5-5-5---5-5---5-5-8-8----8-8-3-3---3-3---3-3-3-3---3-3---------|
 x x   x x   x x x x   x x   x x x x    x x x x   x x   x x x x   x x

---------------------------||-------------------------------------------------|
---------------------------||-------------------------------------------------|
---------------------------||-------------------------------------------------|
---------5-----3-3---------||---------10-----12---------10-----12-------------|
-------------------5-5-----||-------------------------------------------------|
-3-3-1-1---1-1---------1-1-||-3-3-8-8----8-8----8-8-8-8----8-8----8-8---------|
 x x x x   x x                    x x    x x    x x x x    x x    x x

-------------------||---------------------------------------------------------|
-------------------||---------------------------------------------------------|
-------------------||---------------------------------------------------------|
-------13-------12-||---------------------------------------------------------|
-------------------||---------------------------------------------------------|
-10-10----10-10----||---------------------------------------------------------|
 x  x     x  x

----------------------||---------------------|--------------|-----------------|
----------------------||---------------------|--------------|-----------------|
----------------------||---------------------|--------------|-----------------|
-8--8--12-7--7--5--5--||-8--8--12-7--7--5--7-|-5-8--5-0-5-8-|-5-0-------------|
-5--5--8--3--3--1--1--||-5--5--8--3--3--1--3-|-5----5-0-5---|-5-0-------------|
-5--5--8--3--3--1--1--||-5--5--8--3--3--1--3-|-5----5-0-5---|-5-0-------------|
                                                              x
                                                                 ring out...

---------------------------------|---------||---------------------------------|
---------------------------------|---------||---------------------------------|
-----0-----0---------0-------0---|-----0---||---------------------------------|
---4-----4---4-----4---4---4-----|---4-----||---------------------------------|
-0-----0-------0-0-------0-----0-|-0-----0-||---------------------------------|
-1-----1-------1-1-------1-----1-|-1-----1-||---------------------------------|
                                 |
|play this part every 2nd time



Enjoy!
            
Submit corrections

comments powered by Disqus
↑ Back to top | Cloudkicker Tabs for Tip Your Van Driver. Lyrics for acoustic guitar and electric guitar. 1 Tablatures and chords are parodies/interpretations of the original songs. You may use it for private study, scholarship, research or language learning purposes only