» » »

Seriosity Tabs (ver.1)

Artists:  A B C D E F G H I J K L M N O P Q R S T U V W X Y Z # 

Seriosity Tabs (ver.1)

Cloudkicker
Rating:
5/5 (2 votes)

Hard to play? Try these video lessons and learn fast.
                x = palm mute
^ = bend
/ = slide up
\ = slide down
r = right hand tapped note
p = pull off

tuning = B f# b e g# c#

---------------------|-------|---------||-------------------------------------|
---------------------|-------|---------||-------------------------------------|
---------------------|-------|---------||-------------------------------------|
-8--8-0--8--8-0--8-8-|-8-8-0-|-8-8-8-0-||-------------------------------------|
-5--5-0--5--5-0--4-4-|-4-4-0-|-4-4-4-0-||-------------------------------------|
------0-------0--4-4-|-4-4-0-|-4-4-4-0-||-------------------------------------|
                     |       |
                     |1      |2


-----------------------------------------------------|--------||--------------|
-----------------------------------------------------|--------||--------------|
-----------------------------------------------------|--------||--------------|
-----------------------------------------------------|--------||--------------|
-------0-5-------0-5-0-8-------0-5-------0-5-0-8-----|------5-||--------------|
-0-5-8-----0-5-8---------0-5-8-----0-5-8---------0-3-|-p0-3---||--------------|
                                                     |
                                                     |add 2nd & 4th rounds

-------------------------------|----------------------------------------------|
-------------------------------|----------------------------------------------|
-------------------------------|----------------------------------------------|
-8---------------------------8-|----------------------------------------------|
-4---------0-5-------0-5-0-8-4-|----------------------------------------------|
-4---0-5-8-----0-5-8---------4-|----------------------------------------------|

add 4th round

-----------------------------------||-----------------------------------||----|
-----------------------------------||-----------------------------------||----|
-----------------------------------||-----------------------------------||----|
---8----8---8---4---7---0----4---0-||---7---4---------------------1-----||----|
-----------------------------------||-----------8---4---5----1--------5-||----|
-0---4^---8---4---0---8---1^---4---||-0---4---8---4---0---1^---1^---0---||-0--|
                                    |
guitar R                            |guitar L starts this on 5th round

-------------------------------------||---------------------------------------|
-r10p3---r10p3/8r11p8r10p7r10p7r11p8-||---------------------------------------|
-------------------------------------||---------------------------------------|
-------------------------------------||---------------------------------------|
-------------------------------------||---------------------------------------|
-------------------------------------||---------------------------------------|

count in this little interlude/build is 19/4

-----------------||-----------------------------------------------------------|
-----------------||-----------------------------------------------------------|
-----------------||-----------------------------------------------------------|
-4----5-------8--||-----------------------------------------------------------|
-x----x-------x--||-----------------------------------------------------------|
-----------------||-----------------------------------------------------------|

^^this guitar part comes in with the drums on the left side
it matches the drum part in its timing

-------------------------*3---------------------------------------------------|
-------------------------*3---------------------------------------------------|
-------------------------*3---------------------------------------------------|
-0-0-0---0---0-0-0-0-0---*3---------------------------------------------------|
-0-0-0---0---0-0-0-0-0--------------------------------------------------------|
-0-0-0---0---0-0-0-0-0--------------------------------------------------------|
 x x x   x   x x x x x
                          ^^this is a harmonic rake across the 3rd fret


-------------------------------------------------||---------------------------|
-------------------------------------------------||---------------------------|
-------------------------------------------------||---------------------------|
-8--8--12-12----8--8--12-12-8--8--4--4--4--4--4--||---------------------------|
-4--4--8--8-----4--4--8--8--4--4--1--1--5--5--5--||---------------------------|
-4--4--8--8-----4--4--8--8--4--4--1--1--0--0--0--||---------------------------|


Directly from Ben, figured I'd share with all you fans. Enjoy!!
            
Hard to play? Try these video lessons and learn fast. | Correct




comments powered by Disqus
↑ Back to top | Tablatures and chords are parodies/interpretations of the original songs. You may use it for private study, scholarship, research or language learning purposes only