» » »

Cloudkicker, Push It Way Up Tabs (ver.1)

Artists:  A B C D E F G H I J K L M N O P Q R S T U V W X Y Z # 

Push It Way Up Tabs (ver.1)

Cloudkicker Tabs
 Rating:
4/5 (7 votes)
Push It Way Up lessons Tabs too difficult? Try these video lessons and learn fast
                This is Ben's tab after I asked him for a tab of his song, the shorthand is pretty easy 
to follow. Enjoy! All credit to Ben of course.

push it way up!
B F# B E G# C#

intro tapping riff:
-----------------------------------------||-----------------------------------|
-t15p7h10t14p10t14p10-t15p10p7t14p7t14p7-||-----------------------------------|
-----------------------------------------||-----------------------------------|
-----------------------------------------||-----------------------------------|
-----------------------------------------||-----------------------------------|
-----------------------------------------||-----------------------------------|


A:
-------0------0--------0-------0--------0---||---------------------------------|
--------------------------------------------||---------------------------------|
--------------------------------------------||---------------------------------|
-4*--7---4--7---4-4--7--7-4--7---4-4--7---7-||---------------------------------|
-4*--5---4--5---4-4--5--7-4--5---4-4--5---7-||---------------------------------|
-4*------4------4-4-----7-4------4-4------7-||---------------------------------|

*see below

B:
------0--------0------0---------------------------|-------------------||------|
----7--------3------9----------14-14-14-14-14-14--|-14-14-14-14-14-14-||------|
-----------------6--------------------------------|-------------------||------|
-4--7---7-0--4---4--9---11-12--14-14-14-14-14-14--|-14-14-14-14-14-14-||------|
-4--5---7-0--2---4--7---9--0---12-12-12-12-12-12--|-12-12-12-12-12-12-||------|
-4------7-0------4------9--0----------------------|-------------------||------|
1                                                 |a

C:
------------------------------------------------------------------------------|
------------------------------------------------------------------------------|
-----6-----6----------------6-----6-----6----------------6-----6--------------|
---4-----4----------------4-----4-----4----------------4-----4----------------|
------------------------------------------------------------------------------|
-4-----4-----4-4-4--4-4-4-----4-----4-----4-4-4--4-4-4-----4-----4-4-4--4-4---|
1

---------------------------------|-----||-------------------------------------|
---------------------------------|-----||-------------------------------------|
-----6-----7-----6-----7\6-------|---9-||-------------------------------------|
---4-----0-----7-----9-----7-----|-7---||-------------------------------------|
-----------------------------9---|-----||-------------------------------------|
-4-----0-----7-----9-----------0-|-----||-------------------------------------|
                                 |a

D:
-----------------------------------||-----------------------------------------|
------3--------3--------3------3---||-----------------------------------------|
-----------------------------------||-----------------------------------------|
-0--3---3-0--3---0-0--3---0--3---3-||-0---------------------------------------|
-0--1---3-0--1---0-0--1---0--1---3-||-0---------------------------------------|
-0------3-0------0-0------0------3-||-0---------------------------------------|


E:
-----------------------------------5---5---5---5---5---5---5---5-||-----------|
---6---6---6---6---6---6---6---6---------------------------------||-----------|
-7---7---7---7---7---7---7---7---7---7---7---7---7---7---7---7---||-----------|
-----------------------------------------------------------------||-----------|
-----------------------------------------------------------------||-----------|
-----------------------------------------------------------------||-----------|


F:
-------------------------------------------------------------||---------------|
-------------------------------------------------------------||---------------|
-------------------------------------------------------------||---------------|
----------t14p0h5h7t15p0--------------t14p0h5h7t15p0t16p0----||---------------|
-h5--h5h8----------------h5--h5--h5h8---------------------h5-||---------------|
-------------------------------------------------------------||---------------|


F1:
-------------------------------------------------------------||---------------|
-------------------------------------------------------------||---------------|
-------------------------------------------------------------||---------------|
----------t17p0h5h7t19p0--------------t17p0h5h7t19p0t20p0----||---------------|
-h5--h5h8----------------h5--h5--h5h8---------------------h5-||---------------|
-------------------------------------------------------------||---------------|


G:
-------------------------------||---------------------------------------------|
-------------------------------||---------------------------------------------|
-------------------------------||---------------------------------------------|
-------------------------------||---------------------------------------------|
------7--8\---------7--8\------||---------------------------------------------|
-0--0-------0--0--0-------3^-0-||---------------------------------------------|
    x             x

G1:
-------------------------------||---------------------------------------------|
-------------------------------||---------------------------------------------|
-------------------------------||---------------------------------------------|
------5--7\---------5--7\------||---------------------------------------------|
-------------------------------||---------------------------------------------|
-0--0-------0--0--0-------3^-0-||---------------------------------------------|
    x             x


song structure:
Ax4
B1-B1a
C1-C1a-C1-C1a
Ax2 *the second time riff A is played, substitute an open B chord:
---
---
---
-0-
-0-
-0-
Dx2
-----
Ex(infinity)
right speaker: F @ 2:02, G1 @ 6:35
left speaker: F1 @ 3:33, G @ 5:58
            
Submit corrections

comments powered by Disqus
↑ Back to top | Cloudkicker Tabs for Push It Way Up. Lyrics for acoustic guitar and electric guitar. Tablatures and chords are parodies/interpretations of the original songs. You may use it for private study, scholarship, research or language learning purposes only