» » »

Cloudkicker, Let Yourself Be Huge Tabs (ver.1)

Artists:  A B C D E F G H I J K L M N O P Q R S T U V W X Y Z # 

Let Yourself Be Huge Tabs (ver.1)

Cloudkicker Tabs
Rating:
4/5 (2 votes)
Let Yourself Be Huge lessons Tabs too difficult? Try these video lessons and learn fast
                Hey guys, this is my attempt at tabbing out Cloudkicker's "Let Yourself be Huge," and it
is my first tab, so be nice.
A few notes:
1. Usually Cloudkicker (AKA: Ben Sharp) plays a 7 string guitar. I don't own one, and
this song only requires it in one place, so I transposed said section up an octave. I have
denoted where this is. If you own a 7 string, all you have to do is move guitar 2 down 
an octave, and I'm sure you can figure that out.
2. The chords are played on a keyboard, so I will provide the basic chord name above the
tab, and in it how I play it on guitar, but you're free to come up with better
voicings. (And if you do, please write them in the comments)
3. The basic song structure is an instrument coming in and playing phrase repeatedly, so
I have marked each section as Guitar 1, etc.

And of course, this is all the intellectual property of Cloudkicker/Ben Sharp, whom we
should all thank for producing and sharing excellent music.
Time Signature: 4/4

Guitar 1/Keyboard
    A   Bm
e|--0-|-2~~~~~~~~~~~~~~~~~~|
B|--2-|-3~~~~~~~~~~~~~~~~~~|
G|--4-|-4~~~(hold 8 bars)~~|
D|--2-|-4~~~~~~~~~~~~~~~~~~|
A|--0-|-2~~~~~~~~~~~~~~~~~~|
E|----|--------------------|

    A
e|--0-|
B|--2-|
G|--4-| (Pick up measure, first time only)
D|--2-|
A|--0-|
E|----|

   Bm                D         F#m A
e|-2~~~~~~~|~~~~~~~|-5-------|-9---0---|
B|-3~~~~~~~|~~~~~~~|-7-------|-10--2---|
G|-4~~~~~~~|~~~~~~~|-7-------|-9---4---|
D|-4~~~~~~~|~~~~~~~|-7-------|-11--2---|
A|-2~~~~~~~|~~~~~~~|-5-------|-9---0---|
E|---------|-------|---------|---------|


   Bm                D         C#m(b5) A
e|-2~~~~~~~|~~~~~~~|-5-------|-0---0---|
B|-3~~~~~~~|~~~~~~~|-7-------|-5---2---|
G|-4~~~~~~~|~~~~~~~|-7-------|-4---4---|
D|-4~~~~~~~|~~~~~~~|-7-------|-2---2---|
A|-2~~~~~~~|~~~~~~~|-5-------|-4---0---|
E|---------|-------|---------|---------|

Guitar 2 - 6 string version, one octave up from song.(see end for 7 string version)

  All eighth notes
e|-----------------|-----------------|-----------------|-----------------|
B|-----------------|-----------------|-----------------|-----------------|
G|-----------------|-----------------|-----------------|-----------------|
D|-5-5-5-5-5-5-5-5-|-5-5-5-5-5-4-4---|-----------------|-----------------|
A|-----------------|---------------2-|-2-2-2-2-2-2-2-2-|-5-5-5-5-5-5-5-5-|
E|-----------------|-----------------|-----------------|-----------------|

  (I'm not positive on the harmonies)
e|-----------------|-----------------|-----------------|-----------------|
B|-----------------|-----------------|-----------------|-----------------|
G|-4-4-4-4-4-4-4-4-|-4-4-4-4-4-2-2---|-----------------|-----------------|
D|-5-5-5-5-5-5-5-5-|-5-5-5-5-5-4-4-0-|-0-0-0-0-0-0-0-0-|-2-2-2-2-2-2-2-2-|
A|-----------------|---------------2-|-2-2-2-2-2-2-2-2-|-4-4-4-4-4-4-4-4-|
E|-----------------|-----------------|-----------------|-----------------|

Guitar 3

  Eighth notes
e|---3---3---3---3-|---3---3---3---3-|---2---2---2---2-|-0---0---0-2-0---|
B|-5---5---5---5---|-5---5---5---5---|-3---3---3---3---|---3---3-------3-|
G|-----------------|-----------------|-----------------|-----------------|
D|-----------------|-----------------|-----------------|-----------------|
A|-----------------|-----------------|-----------------|-----------------|
E|-----------------|-----------------|-----------------|-----------------|

e|-0---0---0---0---|-0---0---0-------|-2-------0-------|-0-------0-------|
B|---3---3---3---3-|---3---3---3---3-|---3---3---3---2-|---2---3---3---3-|
G|-----------------|-------------4---|-----4-------2---|-----2-------2---|
D|-----------------|-----------------|-----------------|-----------------|
A|-----------------|-----------------|-----------------|-----------------|
E|-----------------|-----------------|-----------------|-----------------|

Guitar 4 - add copious vibrato to your playing

                                                 Bend slightly, then release
  Timing is displayed relatively, listen to recording          *
e|-----------------|------------------|----------------------------|
B|-----------------|------------------|----------------------------|
G|---------/11-----|-----11/12--11-11-|----------------------------|
D|--/9--9------9---|-/9---------------|-/7-7--7-9-9h11-9-7-6-7-6br-|
A|-----------------|------------------|----------------------------|
E|-----------------|------------------|----------------------------|

e|--------------------|---------------------------------|
B|--------------------|---------------------------------|
G|------------/7-7----|-/11-9-9-------------------------|
D|-/9-9--7-7--------7-|----------/11--11--11-11-12-11-9-|
A|--------------------|---------------------------------|
E|--------------------|---------------------------------|

Song Structure - joins means the next instrument comes in while the previous continue to play.
Guitar 1/Keyboard - Intro
Guitar 1/keyboard - 1 time through
Guitar 2 joins for 2 times through
Guitar 3 joins for 2 times through
Guitar 4 joins for 2 times through
Vocals join for 4 times through
Guitar 4 and vocals cut out, leaving guitars 1, 2, and 3 for 2 times through.
            
Submit corrections

comments powered by Disqus
↑ Back to top | Cloudkicker Tabs for Let Yourself Be Huge. Lyrics for acoustic guitar and electric guitar. Tablatures and chords are parodies/interpretations of the original songs. You may use it for private study, scholarship, research or language learning purposes only