» » »

Cloudkicker, Avalanche Tabs (ver.1)

Artists:  A B C D E F G H I J K L M N O P Q R S T U V W X Y Z # 

Avalanche Tabs (ver.1)

Cloudkicker Tabs
Rating:
5/5 (4 votes)
Avalanche lessons Tabs too difficult? Try these video lessons and learn fast
                x = palm mute
^ = bend
/ = slide up
\ = slide down
r = right hand tapped note
p = pull off

tuning = B f# b e g# c#

opening riff:
-----------------------------------|-------------------------------|----------|
-----------------------------------|-------------------------------|----------|
-----------------------------------|-------------------------------|----------|
-----------------------------------|-------------------------------|----------|
-----5-----5-------5-----5-----5---|-----5------5-------5-----3----|----------|
-0-3---0-3^--0---3---0-3^--0-3---3-|-0-3---0-3^---0---3---0-3^--3^-|----------|


-----------------------------------------------------------------|------------|
-----------------------------------------------------------------|------------|
-----------------------------------------------------------------|------------|
-----------------------------------------------------------------|------------|
-----5-----5-------5-----5---5---5-----5-----5-------5------3----|------------|
-0-3---0-3^--0---3---0-3^--3^--3^--0-3---0-3^--0---3---0-3^---3^-|------------|



opening riff changes to this:
(a)
-----------------------------------|-------------------------------|----------|
-----------------------------------|-------------------------------|----------|
-----------------------------------|-------------------------------|----------|
-----------------------------------|-------------------------------|----------|
-----9-----6-------9-----6-----9---|-----6-----9-------6------9----|----------|
-0-6---0-3^--0---6---0-3^--0-6---6-|-0-3---0-6^--0---3---0-6^---6^-|----------|

(b)
-----------------------------------|-------------------------------|----------|
-----------------------------------|-------------------------------|----------|
-----------------------------------|-------------------------------|----------|
-----------------------------------|-------------------------------|----------|
-----6-----9-------6-----9-----5---|-----9-----5-------9------5----|----------|
-0-3---0-6^--0---3---0-6^--0-3---3-|-0-6---0-3^--0---6---0-3^---3^-|----------|

one guitar plays (a) > (b) while the other plays (b) > (a)


section 1 ending:
(a)                   |(b)                   |
---------------------||---------------------||-------|---------------------|-|
---------------------||---------------------||-------|---------------------|-|
---------------------||---------------------||-------|---------------------|-|
---------------------||-----4^4^----4^----4^||-------|---------------------|-|
-----5^5^----5^----5^||---------------------||-----5-|-----4-4-----4-----4-|-|
-0-0-----0-0---0-0---||-0-0-----0-0---0-0---||-2^0---|-1-0-----0-0---0-0---|-|
                                                      (0)
						      ^^lead-in is 1
						every other time is 0

filler riff b/t section 1 and 2:
-0-------0----|-|
-----6--------|-|
---7---7---7--|-|
--------------|-|
--------------|-|
--------------|-|

section 2:
------------------------------------------------|-----------------------------|
------------------------------------------------|-----------------------------|
------------------------------------------------|-----------------------------|
------------------------------------------------|-----------------------------|
------------------------------------------------|-----------------------------|
-0-0-8\0--00-8\0-10\0-12-15-0-0-7^-0--00-7p0-00-|-----------------------------|
          xx                          xx     xx

------------------------------------------||----------------------------------|
------------------------------------------||----------------------------------|
------------------------------------------||----------------------------------|
------------------------------------------||----------------------------------|
------------------------------------------||-------0h5h8----------------------|
-0-0-8\0--00-8\0-10\0-7-8-0-0-7^-0-000000-||-0h7h7----------------------------|
          xx                       xxxxxx
					      ^^play this under that little
						drum fill thing


riff changes to this after a few rounds:
------------------------------------------|-----------------------------------|
------------------------------------------|-----------------------------------|
------------------------------------------|-----------------------------------|
-0-0-8-0-----8-0-7-0-12-15-0-0-7-0--------|-----------------------------------|
-0-0-8-0--00-8-0-7-0-12-15-0-0-7-0-000-00-|-----------------------------------|
-0-0-8-0--00-8-0-7-0-12-15-0-0-7-0-000-00-|-----------------------------------|
 x x   x  xx   x   x       x x   x xxx xx

-----------------------------------------||-----------------------------------|
-----------------------------------------||-----------------------------------|
-----------------------------------------||-----------------------------------|
-0-0-8-0-----8-0-10-0-7-8-0-0-7-0--------||-----------------------------------|
-0-0-8-0--00-8-0-10-0-7-8-0-0-7-0-000-00-||-----------------------------------|
-0-0-8-0--00-8-0-10-0-7-8-0-0-7-0-000-00-||-----------------------------------|
 x x   x  xx   x    x     x x   x xxx xx

section 2 ends with this:       filler riff b/t sec. 2 and 3:        |
--------------------------------------||------------------|---8---8-||-----|--|
--------------------------------------||------------------|-6-------||-----|--|
--------------------------------------||------------------|-----9---||-----|--|
-0-0-7\-0---000-0-7\0-0-7\0---000-0-7-||------------------|---------||-5-3-|--|
-0-0-7\-0---000-0-7\0-0-7\0---000-0-7-||------------------|---------||-5-3-|--|
-0-0-7\-0---000-0-7\0-0-7\0---000-0-7-||------------------|---------||-5-3-|--|
 x x    x   xxx x   x x   x   xxx x


section 3:
-------------------------------------------------------------------------||---|
-------------------------------------------------------------5-6-8-6-5---||---|
---------------------------------------------------------5-7-----------7-||---|
-----------------------------------------------------5-7-----------------||---|
-5-5-555-5-5-5-5-555-5-5-555-5-5-555-5-5-5-5-555-5-8---------------------||---|
-0-0-000-0-0-0-0-000-0-0-000-0-0-000-0-0-0-0-000-------------------------||3^-|
     xxx         xxx     xxx     xxx         xxx

------------------------------------------------------------------------------|
------------------------------------------------------------------------------|
------------------------------------------------------------------------------|
-0-------5---------10---------------------------------------------------------|
-0-------5---------8----------------------------------------------------------|
-0-------5---------8----------------------------------------------------------|

these are the underlying chords for the last couple parts after the intro riff

then it goes back to the riff that ended section 1 w/ both guitars playing (a)


*This is directly from Ben, figured I'd share it rather than keep it to myself, Cheers!
            

comments powered by Disqus
↑ Back to top | Cloudkicker Tabs for Avalanche. Lyrics for acoustic guitar and electric guitar. Tablatures and chords are parodies/interpretations of the original songs. You may use it for private study, scholarship, research or language learning purposes only