>
 >
Kissing Cousins

Kissing Cousins Guitar Tabs

Closure In Moscow - Kissing Cousins chords, tabs, tablatures, lyrics

Guitar lessons | Add/correct | Request | Top 50 tabs Artists:  A B C D E F G H I J K L M N O P Q R S T U V W X Y Z 0-9

Kissing Cousins Guitar Tabs – Closure In Moscow

CD, Sheet music, Poster

Do you like Kissing Cousins? Share with your friends now
Tabs
DROP C

was in...he said the WHOLE CD is in Drop C tuning, if that helps 
everyone...

Guitar 2 is below the Guitar 1 tab...scroll down to see...
 LEAVE COMMENTS AND RATE PLEASE!!!!!
GUITAR 1
i think this is it...
Intro
d|-------------------------------------|
A|-------------13----------------------|
F|----------13----13---------------13--|x4
C|----11-14------------11----11-14-----|
G|-12---------------------12-----------|
C|-------------------------------------|


After Intro
d|---------------------------------|
A|---------------------------------|
F|---------------------------------|x2
C|---------------------------------|
G|---------------------------------|
c|-7-7-7-7-6-6-7-7-7-7-6-6-7-7-6-6-|

d|-------------------------------------------------|
A|-------------------------------------------------|
F|-------------------------------------------------|
C|-------------------------------------------------|
G|-4-4-4-4-0-0-4-4-4-4-0-0-4-4-0-0-4-4-4-4-0-0-4-4-|
c|-------------------------------------------------|

d|------------------|
A|------------------|
F|------------------|
C|------------------|
G|-7-7-7-7-4-4-7-7--|
c|------------------|
 

play this REALLY FREAKIN FAST!!!
sometimes live i saw them holdin down the
bottom note and just letting go of the top
note...
d|--------------------------|
A|--------------------------|
F|-18-18-------18-18--------|x4
C|--------------------------|
G|-------16-16-------16-16--|
c|--------------------------|

d|-19-19-------19-19--------|
A|--------------------------|
F|-------16-16-------16-16--|x4
C|--------------------------|
G|--------------------------|
c|--------------------------|

d|--------------------------|
A|--------------------------|
F|-18-18-------18-18--------|x4
C|--------------------------|
G|-------16-16-------16-16--|
c|--------------------------|

d|-19---19-19-19---19---19-19-19-19-|
A|----------------------------------|
F|-16---16-16-16---16---16-16-16-16-|
C|----------------------------------|
G|----------------------------------|
c|----------------------------------|

then i use these chords for this calm part...
d|-0-4-0-4--|
A|-0-5-0-5--|
F|-2-6-2-6--|
C|-2-6-2-6--|
G|-0-4-0-4--|
c|-x-x-x-x--|


Chorus
d|--------------------------|
A|--------------------------|
F|--------------------------|
C|-2-(x32)-6-(x24)-9-(x8)---|
G|-0-------4-------7--------|
c|--------------------------|

d|--------------------------|
A|--------------------------|
F|--------------------------|
C|-2-(x32)-6-(x24)-9-(x8)---|
G|-0-------4-------7--------|
c|--------------------------|

d|--------------------------|
A|--------------------------|
F|--------------------------|
C|-11-(x32)---(x24)--(x8)---|
G|--9-------9------11-------|
c|----------9------11-------|
 
After Chorus
d|--------------------------|
A|--------------------------|
F|-18-18-------18-18--------|x2
C|--------------------------|
G|-------16-16-------16-16--|
c|--------------------------|

d|-x-x-------------------------------------------------------|
A|-x-x-------------------------------------------------------|
F|-x-x-------------------------------------------------------|
C|-x-x-------------------------------------------------------|
G|-x-x-0-0-0-0-11-11---0-0-0-0-11-11-11-11---0-0-11-11-0-0-0-|
c|-x-x-------------------------------------------------------|

d|--------------------------------------------------------|
A|--------------------------------------------------------|
F|--------------------------------------------------------|
C|--------------------------------------------------------|
G|-9-9-9-9-11-11---9-9-9-9-11-11-11-11---9-9-11---0--11\--|
c|--------------------------------------------------------|

d|-------------------------------------------------------------|
A|-------------------------------------------------------------|
F|-------------------------------------------------------------|
C|-------------------------------------------------------------|
G|-4---4-4-4--4---4---2----11---11-11-11--11---11---11-9-7--0--|
c|-------------------------------------------------------------|

then some small shred time and some octave strums with effect, i cant figure it out...
 After clap...
d|--------------------------|
A|--------------------------|
F|-18-18-------18-18--------|x4
C|--------------------------|
G|-------16-16-------16-16--|
c|--------------------------|

d|-19-19-------19-19--------|
A|--------------------------|
F|-------16-16-------16-16--|x4
C|--------------------------|
G|--------------------------|
c|--------------------------|

Chorus
d|--------------------------|
A|--------------------------|
F|--------------------------|
C|-2-(x32)-6-(x24)-9-(x8)---|
G|-0-------4-------7--------|
c|--------------------------|

d|--------------------------|
A|--------------------------|
F|--------------------------|
C|-11-(x32)---(x24)--(x8)---|
G|--9-------9------11-------|
c|----------9------11-------|
  

d|--------------------------|
A|--------------------------|
F|-18-18-------18-18--------|x7
C|--------------------------|
G|-------16-16-------16-16--|
c|--------------------------|

d|-19-19-------19-19--------|
A|--------------------------|
F|-------16-16-------16-16--|x7
C|--------------------------|
G|--------------------------|
c|--------------------------|

d|--------------------------|
A|--------------------------|
F|-18-18-------18-18--------|x8
C|--------------------------|
G|-------16-16-------16-16--|
c|--------------------------|

d|-19-19-------19-19--------|
A|--------------------------|
F|-------16-16-------16-16--|x8
C|--------------------------|
G|--------------------------|
c|--------------------------|

"We have never lived"
d|--------------------------------------|
A|--------------------------------------|
F|--------------------------------------|x2
C|--------------------------------------|
G|-7--7-7---7--7-7--11--11-11---9--9-9--|
c|-7--7-7---7--7-7--11--11-11---9--9-9--|

piano...

Ending Chorus.
d|--------------------------|
A|--------------------------|
F|--------------------------|
C|-2-(x32)-6-(x24)-9-(x8)---|
G|-0-------4-------7--------|
c|--------------------------|



GUITAR 2

IM doing the chorus as if it were playes live, on the album, its hard to hear
but he plays the chorus riff with a higher riff and a lower riff...im going 
to post the higher one, because the lower one is already apart of the live version...
Intro

d|-------------------------------------------|
A|-------------------------------------------|
F|-------------------------------------------|
C|-6-6-6-5-5-5-8-8-8-6-6-6-13-13-13-11-11-11-|
G|-------------------------------------------|
c|-------------------------------------------|

d|-----------------------------------|
A|-----------------------------------|
F|-----------------------------------|
C|-14-14-14-17-17-17-14-14-14-13-13--|x2
G|-----------------------------------|
c|-----------------------------------|

an octave up
d|-9-9-9-8-8-8-11-11-11-9-9-9-16-16-16-14-14-14-|
A|----------------------------------------------|
F|----------------------------------------------|
C|----------------------------------------------|
G|----------------------------------------------|
c|----------------------------------------------|

d|-17-17-17-16-16-16-20-20-20-17-17-17-16-16-|
A|-------------------------------------------|
F|-------------------------------------------|x2
C|-------------------------------------------|
G|-------------------------------------------|
c|-------------------------------------------|

After Intro
d|--------------------------------------------------|
A|--------------------------------------------------|
F|-13b--------------------13b-------------------13b-|
C|------------------11-14-----------------11-14-----|
G|------12-12-12-14-----------12-12-12-14-----------|
c|--------------------------------------------------|

d|---------------------------------------|
A|--------------------------12-12--------|
F|----------------11b-13-13-------13-13--|
C|-11-11----11-14------------------------|
G|-------14------------------------------|
c|---------------------------------------|

d|----------------------------------------------------|
A|----------------------------------------------------|
F|-13b-----------------13-11b-------------------11-13-|
C|------------------11--------------------11-14-------|
G|------12-12-12-14-----------12-12-12-14-------------|
c|----------------------------------------------------|

|---------------------------------------------|
A|-------------------------------12-12--------|
F|----------------11-11-11-13-13-------13-13--|
C|-11-11----11-14-----------------------------|
G|-------14-----------------------------------|
c|--------------------------------------------|


play this REALLY FREAKIN FAST!!!
d|--------------------------|
A|--------------------------|
F|-21-21-------21-21--------|x12
C|--------------------------|
G|-------19-19-------19-19--|
c|--------------------------|

d|-----------------------------------|
A|-----------------------------------|
F|-21---21-21-21---21---21-21-21-21--|
C|-----------------------------------|
G|-19---19-19-19---19---19-19-19-19--|
c|-----------------------------------|

keyboard...somethin like this
d|--------------------------|-7-9-12-9-12-9-12-(etc...)|
A|-7-9-12-9-12-9-12-(etc...)|--------------------------|
F|--------------------------|--------------------------|
C|--------------------------|--------------------------|
G|--------------------------|--------------------------|
c|--------------------------|--------------------------|
 
Chorus
d|-16b----16b----/12-14-14-14-14-12-12---|
A|---------------------------------------|
F|-----14-----14-------------------------|
C|---------------------------------------|
G|---------------------------------------|
c|---------------------------------------|

d|--/14-16-16-16-16-14-12-------14b------------|
A|------------------------14/17----14----14-17-|
F|------------------------------------16-------|
C|---------------------------------------------|
G|---------------------------------------------|
c|---------------------------------------------|

d|-14-14-14-16-16-19-19-16-16--|
A|-----------------------------|
F|-----------------------------|
C|-----------------------------|
G|-----------------------------|
c|-----------------------------|

d|-16b------------------14b--------------------14b--|
A|----------------14-17-----------------14-17-------|
F|----14-14-14-16-----------14-14-14-16-------------|
C|--------------------------------------------------|
G|--------------------------------------------------|
c|--------------------------------------------------|

d|-------------14-14-14-16-16-19-19-16-16--|
A|-14b---14-17-----------------------------|
F|----16-----------------------------------|
C|-----------------------------------------|
G|-----------------------------------------|
c|-----------------------------------------|

d|-16b----16b----/12-14-14-14-14-12-12---|
A|---------------------------------------|
F|-----14-----14-------------------------|
C|---------------------------------------|
G|---------------------------------------|
c|---------------------------------------|

d|--/14-16-16-16-16-14-12-------14b------------|
A|------------------------14/17----14----14-17-|
F|------------------------------------16-------|
C|---------------------------------------------|
G|---------------------------------------------|
c|---------------------------------------------|

d|-14-14-14-16-16-19-19-16-16--|
A|-----------------------------|
F|-----------------------------|
C|-----------------------------|
G|-----------------------------|
c|-----------------------------|


d|--------------------------|
A|--------------------------|
F|-21-21-------21-21--------|x2
C|--------------------------|
G|-------19-19-------19-19--|
c|--------------------------|

After Chorus
d|-x-x-------------------------------------------------------|
A|-x-x-------------------------------------------------------|
F|-x-x-------------------------------------------------------|
C|-x-x-------------------------------------------------------|
G|-x-x-0-0-0-0-11-11---0-0-0-0-11-11-11-11---0-0-11-11-0-0-0-|
c|-x-x-------------------------------------------------------|

d|--------------------------------------------------------|
A|--------------------------------------------------------|
F|--------------------------------------------------------|
C|---------------------------------------------------13\--|
G|-9-9-9-9-11-11---9-9-9-9-11-11-11-11---9-9-11---0-------|
c|--------------------------------------------------------|

d|-------------------------------------------------------------|
A|-------------------------------------------------------------|
F|-6---6-6-6--6---6---4----13---13-13-13--13---13---13-11-9-7--|
C|-------------------------------------------------------------|
G|-------------------------------------------------------------|
c|-------------------------------------------------------------|

that sweet effect thing...

after clap
d|------------------------------------------------|
A|------------------------------------------------|
F|-9-9\6--9-9\6--9-9\6-11-11\9-11-11\9--16-16\13--|
C|------------------------------------------------|x2
G|-7-7\4--7-7\4--7-7\4--9--9\7--9--9\7--14-14\11--|
c|------------------------------------------------|

Chorus
d|-16b----16b----/12-14-14-14-14-12-12---|
A|---------------------------------------|
F|-----14-----14-------------------------|
C|---------------------------------------|
G|---------------------------------------|
c|---------------------------------------|

d|--/14-16-16-16-16-14-12-------14b------------|
A|------------------------14/17----14----14-17-|
F|------------------------------------16-------|
C|---------------------------------------------|
G|---------------------------------------------|
c|---------------------------------------------|

d|-14-14-14-16-16-19-19-16-16--|
A|-----------------------------|
F|-----------------------------|
C|-----------------------------|
G|-----------------------------|
c|-----------------------------|

d|-16b------------------14b--------------------14b--|
A|----------------14-17-----------------14-17-------|
F|----14-14-14-16-----------14-14-14-16-------------|
C|--------------------------------------------------|
G|--------------------------------------------------|
c|--------------------------------------------------|

d|-------------14-14-14-16-16-19-19-16-16--|
A|-14b---14-17-----------------------------|
F|----16-----------------------------------|
C|-----------------------------------------|
G|-----------------------------------------|
c|-----------------------------------------|

d|-16b----16b----/12-14-14-14-14-12-12---|
A|---------------------------------------|
F|-----14-----14-------------------------|
C|---------------------------------------|
G|---------------------------------------|
c|---------------------------------------|

d|--/14-16-16-16-16-14-12-------14b------------|
A|------------------------14/17----14----14-17-|
F|------------------------------------16-------|
C|---------------------------------------------|
G|---------------------------------------------|
c|---------------------------------------------|

d|-14-14-14-16-16-19-19-16-16--|
A|-----------------------------|
F|-----------------------------|
C|-----------------------------|
G|-----------------------------|
c|-----------------------------|

d|-16b----16b----/12-14-14-14-14-12-12---|
A|---------------------------------------|
F|-----14-----14-------------------------|
C|---------------------------------------|
G|---------------------------------------|
c|---------------------------------------|

d|--/14-16-16-16-16-14-12-------14b------------|
A|------------------------14/17----14----14-17-|
F|------------------------------------16-------|
C|---------------------------------------------|
G|---------------------------------------------|
c|---------------------------------------------|

d|-14-14-14-16-16-19-19-16-16--|
A|-----------------------------|
F|-----------------------------|
C|-----------------------------|
G|-----------------------------|
c|-----------------------------|
 

After Chorus
d|------------------------------------------------|
A|------------------------------------------------|
F|-6-6/9--6-6/9--6-6/9-11-11\9-11-11\9--16-16\13--|
C|------------------------------------------------|x4
G|-4-4/7--4-4/7--4-4/7--9--9\7--9--9\7--14-14\11--|
c|------------------------------------------------|

d|------------------------------------|
A|------------------------------------|
F|-9-9-9---9-9-9--13-13-13--11-11-11--|
C|------------------------------------|
G|-7-7-7---7-7-7--11-11-11---9--9--9--|
c|------------------------------------|

d|-4b-r-----4b-r----4b-r----|
A|------2-2-----2-2------2--|
F|--------------------------|x7
C|--------------------------|
G|--------------------------|
c|--------------------------|
 
Ending Chorus
d|-16b----16b----/12-14-14-14-14-12-12---|
A|---------------------------------------|
F|-----14-----14-------------------------|
C|---------------------------------------|
G|---------------------------------------|
c|---------------------------------------|

d|--/14-16-16-16-16-14-12-------14b------------|
A|------------------------14/17----14----14-17-|
F|------------------------------------16-------|
C|---------------------------------------------|
G|---------------------------------------------|
c|---------------------------------------------|

d|-14-14-14-16-16-19-19-16-16--|
A|-----------------------------|
F|-----------------------------|
C|-----------------------------|
G|-----------------------------|
c|-----------------------------|

d|-16b------------------14b--------------------14b--|
A|----------------14-17-----------------14-17-------|
F|----14-14-14-16-----------14-14-14-16-------------|
C|--------------------------------------------------|
G|--------------------------------------------------|
c|--------------------------------------------------|

d|-------------14-14-14-16-16-19-19-16-16--|
A|-14b---14-17-----------------------------|
F|----16-----------------------------------|
C|-----------------------------------------|
G|-----------------------------------------|
c|-----------------------------------------|

d|-16b----16b----/12-14-14-14-14-12-12---|
A|---------------------------------------|
F|-----14-----14-------------------------|
C|---------------------------------------|
G|---------------------------------------|
c|---------------------------------------|

d|--/14-16-16-16-16-14-12-------14b------------|
A|------------------------14/17----14----14-17-|
F|------------------------------------16-------|
C|---------------------------------------------|
G|---------------------------------------------|
c|---------------------------------------------|

d|-14-14-14-16-16-19-19-16-16--|
A|-----------------------------|
F|-----------------------------|
C|-----------------------------|
G|-----------------------------|
c|-----------------------------|

d|-16b----16b----/12-14-14-14-14-12-12---|
A|---------------------------------------|
F|-----14-----14-------------------------|
C|---------------------------------------|
G|---------------------------------------|
c|---------------------------------------|

d|--/14-16-16-16-16-14-12-------14b------------|
A|------------------------14/17----14----14-17-|
F|------------------------------------16-------|
C|---------------------------------------------|
G|---------------------------------------------|
c|---------------------------------------------|

d|-14-14-14-16-16-19-19-16-16--|
A|-----------------------------|
F|-----------------------------|
C|-----------------------------|
G|-----------------------------|
c|-----------------------------|
 





Comments


Popular Closure In Moscow tabs & chords
Had To Put It In The Soil Chords
Pony Chords
A Night At The Spleen Tabs
A Night At The Spleen Intro Tabs
Dulcinea Acoustic Intro Tabs
Heres To Entropy Intro Tabs
Heres To Entropy Intro 1 Tabs
Pony Tabs
Sweethart Intro Tabs
Pony Ukulele


Song lyrics



↑ Back to top | Tablatures and chords are parodies/interpretations of the original songs. You may use it for private study, scholarship, research or language learning purposes only
© 2014 AZChords.com Contact us | Privacy policy | DMCA | Add/correct tabs | Request tabs | Top 50 tabs