» » »

Closure In Moscow, A Night At The Spleen Tabs (ver.2)

Artists:  A B C D E F G H I J K L M N O P Q R S T U V W X Y Z # 

A Night At The Spleen Tabs (ver.2)

Closure In Moscow Tabs
 Rating:
3.1/5 (7 votes)
A Night At The Spleen lessons Tabs too difficult? Try these video lessons and learn fast
                (Intro)
The chords sound right... Listen to the song and figure the rythem out foryourself.

|-----------1-----5--5---6---6--6\--------------------------|
|-----3-----3-----6--6---8---7--7\--------------------------|
|-----3-----3-----7--7---6---8--8\--------------------------|
|-----3-----------7------8---8--8\--------------------------|
|-----1-----------5------6---6--6\--------------------------|
|-----------------------------------------------------------|

|---------5---/6--x-6\-------------------------10\----------|
|-----3---6---/8--x-8\-----/3-3-3-3-3--5-5\----11\----------|
|-----3---7---/6--x-6\-----/3-3-3-3-3--5-5\----12\----------|
|-----3---7---/8--x-8\-----/3-3-3-3-3--5-5\-----------------|
|---------5---/6--x-6\--------------------------------------|
|--/3-3--------------------/3-3-3-3-3--5-5\-----------------|


|---------5-/8--x-8-\---10-10-10-10-x--8--8-\---------------|
|---/6-6--6-/10-x-10\---11-11-11-11-x--10-10\---------------|
|---/7-7--7-/8--x-8-\---12-12-12-12-x--8--8-\---------------|
|---/7-7--7-/10-x-10\---12-12-12-12-x--10-10\---------------|
|---------5-/8--x-8-\---10-10-10-10-x--8--8-\---------------|
|---/6-6----------------------------------------------------|

have fun
            
Submit corrections

comments powered by Disqus
↑ Back to top | Closure In Moscow Tabs for A Night At The Spleen. Lyrics for acoustic guitar and electric guitar. Tablatures and chords are parodies/interpretations of the original songs. You may use it for private study, scholarship, research or language learning purposes only