» » »

Clay Aiken, Invisible Tabs (ver.1)

Artists:  A B C D E F G H I J K L M N O P Q R S T U V W X Y Z # 

Invisible Tabs (ver.1)

Clay Aiken Tabs
Rating:
1/5 (1 vote)
Invisible lessons Tabs too difficult? Try these video lessons and learn fast
                --------------------------------------------------------------------------
--------------------------------------------------------------------------
and this is my first time tabbing! This tab is meant to be played with the music
so yeah =)
          (Special thanks to Thanh for the encouragement! ^_~)

Tuning: Drop D
e|-----------------------------------------------------------------------|
B|-----------------------------------------------------------------------|
G|-----------------------------------------------------------------------|
D|-----------------------------------------------------------------------|
A|-----------------------------------------------------------------------|
D|-----------------------------------------------------------------------|

[Verse 1]
e|--------------------------------------|
B|--------------------------------------|
G|--------------------------------------|
D|7--7-10-10-10-7--7-5-7-5-3--3-2-3-2-0-|
A|--------------------------------------|
D|--------------------------------------|

e|----------------------------------------------------------|
B|----------------------------------------------------------|
G|----------------------------5--8-10-12--5-8-8-10-7--8-7-5-|
D|7--7-10-10-10-7--7-5-7-5-3--------------------------------|
A|----------------------------------------------------------|
D|----------------------------------------------------------|

e|----------------------------------------|
B|----------------------------------------|
G|5--8-10-12--5--15--13--12--13-12--13-12-|
D|----------------------------------------|
A|----------------------------------------|
D|----------------------------------------|

[Chorus 1]
e|-----------------------------------|
B|-----------------------------------|
G|-----------------------------------|
D|0-3-5-7-5-3-3---0-3-5-7--3-3-2-2-3-|
A|-----------------------------------|
D|-----------------------------------|

e|-----------------------------|
B|-----------------------------|
G|-------------------------3-5-|
D|0-3-5-7-5-3-3---0-5-5-7------|
A|-----------------------------|
D|-----------------------------|

e|-----------------------------------|
B|-----------------------------------|
G|-----------------------------------|
D|0-3-5-7-5-3-3---0-3-5-7--3-3-2-2-3-|
A|-----------------------------------|
D|-----------------------------------|

e|------------------------------------------------|
B|------------------------------------------------|
G|------------------------------------------------|
D|5-5-5--5--10--2-3---0-3-5-7-3-3----3----3-3-2-3-|
A|--------------------------------------3---------|
D|------------------------------------------------|

[Verse 1]
e|--------------------------------------|
B|--------------------------------------|
G|--------------------------------------|
D|7--7-10-10-10-7--7-5-7-5-3--3-2-3-2-0-|
A|--------------------------------------|
D|--------------------------------------|

e|----------------------------------------------------------|
B|----------------------------------------------------------|
G|----------------------------5--8-10-12--5-8-8-10-7--8-7-5-|
D|7--7-10-10-10-7--7-5-7-5-3--------------------------------|
A|----------------------------------------------------------|
D|----------------------------------------------------------|

e|-------------------------------------------------|
B|-------------------------------------------------|
G|15-12-8--5--8-10-12--5--15--13--12--13-12--13-12-|
D|-------------------------------------------------|
A|-------------------------------------------------|
D|-------------------------------------------------|

[Chorus 2]
e|-----------------------------------|
B|-----------------------------------|
G|-----------------------------------|
D|0-3-5-7-5-3-3---0-3-5-7--3-3-2-2-3-|
A|-----------------------------------|
D|-----------------------------------|

e|-----------------------------|
B|-----------------------------|
G|-------------------------3-5-|
D|0-3-5-7-5-3-3---0-5-5-7------|
A|-----------------------------|
D|-----------------------------|

e|-----------------------------------|
B|-----------------------------------|
G|-----------------------------------|
D|0-3-5-7-5-3-3---0-3-5-7--3-3-2-2-3-|
A|-----------------------------------|
D|-----------------------------------|

e|--------------------------------------------------|
B|--------------------------------------------------|
G|--------------------------------------------------|
D|5-5-5--5--10--2-3---0-3-5-7-3-3----3----3-3-2-3/5-|
A|--------------------------------------3-----------|
D|--------------------------------------------------|

[Verse 2]
e|----------------------|
B|----------------------|
G|----------------------|
D|5-5-7-------5-5-7-----|
A|------3-5---------3-5-|
D|----------------------|

e|---------------------------------------------------|
B|---------------------------------------------------|
G|---------------------------------------------------|
D|---------------------------------------------------|
A|5-1------------------------------------------------|
D|------4-7-7-4-9-6--11-14-14-11-14-11--4-7-7-4-9-11-|

e|-------------------------------------------------------|
B|-------------------------------------------------------|
G|-------------------------------------------------------|
D|-------------------------------------------------------|
A|-------------------------------------------------------|
D|11-14-16-14-12-11-14--11-14-16-14-12-11-12-11-9-7-11\9-|

[Chorus 3]
e|-----------------------------------|
B|-----------------------------------|
G|-----------------------------------|
D|0-3-5-7-5-3-3---0-3-5-7--3-3-2-2-3-|
A|-----------------------------------|
D|-----------------------------------|

e|-----------------------------|
B|-----------------------------|
G|-------------------------3-5-|
D|0-3-5-7-5-3-3---0-5-5-7------|
A|-----------------------------|
D|-----------------------------|

e|-----------------------------------|
B|-----------------------------------|
G|-----------------------------------|
D|0-3-5-7-5-3-3---0-3-5-7--3-3-2-2-3-|
A|-----------------------------------|
D|-----------------------------------|

e|--------------------------------|
B|--------------------------------|
G|--------------------------------|
D|5-5-5--5--10--2-3---0-3-5-7-3-3-|
A|--------------------------------|
D|--------------------------------|

e|--------------|     =|
B|--------------|      |
G|--------------|      | play it six times while
D|0-3-5-7-5-3-3-|      | starting to fade out...
A|--------------|      |
D|--------------|     =|

| /  slide up
| \  slide down

===========================================================================
            

comments powered by Disqus
↑ Back to top | Clay Aiken Tabs for Invisible. Lyrics for acoustic guitar and electric guitar. Tablatures and chords are parodies/interpretations of the original songs. You may use it for private study, scholarship, research or language learning purposes only