>
 >
Reverie

Reverie Guitar Tabs

Claude Debussy - Reverie chords, tabs, tablatures, lyrics

Guitar lessons | Add/correct | Request | Top 50 tabs Artists:  A B C D E F G H I J K L M N O P Q R S T U V W X Y Z 0-9

Reverie Guitar Tabs – Claude Debussy

CD, Sheet music, Poster

Do you like Reverie? Share with your friends now
Tabs
Guitar 1: Recording back up
Guitar 2: Live lead


(Guitar 1)
e|-------------------------------------------------------------------------|
B|-------------------------------------------------------------------------|
G|------0-----------0-----------0-----------0-----------0-----------0------|
D|----0---0-------0---0-------0---0-------0---0-------0---0-------0---0----|
A|-1-3------3-1-3-------3-1-3-------3-1-3-------3-1-3-------3-1-3-------3-1|
E|-------------------------------------------------------------------------|

e|------------------------------------------1-------------1----------------|
B|----------------------------------------1---1-----------1----------------|
G|--------------------------------------2-------2---------2----------------|
D|-------3---------------2------------3-----------3-------3----------------|
A|-0-1-3---3-1-0----0-1----1-0------3---------------3-----3----------------|
E|----------------3------------3--1-------------------1---1----------------|

e|-----------5-------------------------------------------------------------|
B|---------6---6--------------6----------3---------------------------------|
G|-------7--------7--------7-----------4-----------------------------------|
D|----7-------------7----7-----------5-------x2----------------------------|
A|--5-----------------5------------5---------------------------------------|
E|-------------------------------3-----------------------------------------|

e|----------3-----------------------------------------1--------------------|
B|--------4---4----------4--------------------------1---1------------------|
G|------5------5-------5-----------4--------------2-------2----------------|
D|----5----------5---5-----------3------x2------3-----------3--------------|
A|--3--------------3-----------3--------------3---------------3------------|
E|---------------------------1--------------1-------------------1----------|

e|----------3----------------3--------------------------------------------|
B|--------4--4-------------4---4------------------------------------------|
G|------5------5---------5--------5---------------------------------------|
D|----5----------5-----5------------5-------------------------------------|
A|--3--------------3-3----------------3~~~~-------------------------------|
E|------------------------------------------------------------------------|

|---1--------------------6--------------------3----------------------------|
B|--1--------------------6--------------------3----------------------------|
G|--2--------------------7--------------------4----------------------------|
D|--3--------------------8--------------------5----------------------------|
A|--3--------------------8--------------------5----------------------------|
E|--1--------------------6--------------------3----------------------------|

e|----------3----------------3---------------------------------------------|
B|--------4--4-------------4---4-------------------------------------------|
G|------5------5---------5--------5----------------------------------------|
D|----5----------5-----5------------5--------------------------------------|
A|--3--------------3-3----------------3~~~~--------------------------------|
E|-------------------------------------------------------------------------|

e|-------------------------------------------------------------------------|
B|--------------------10--------------------------------9------------------|
G|--~8-------------------11----11------8------------------9---9------------|
D|-----10-----10--x4--------12-----x4-----10----10--x4------9----x4--------|
A|---------10--------------------------------10----------------------------|
E|-------------------------------------------------------------------------|

e|--5-----------5--------------5-----5-----5-----5------5-----5------------|
B|----5---5-------5---5----------------------------------------------------|
G|------5---x4------4----x4-------5-----5-----5-----5------5------5--------|
D|-------------------------------------------------------------------------|
A|-------------------------------------------------------------------------|
E|-------------------------------------------------------------------------|

e|-----------3-------------------------------------------------------------|
B|---------4---4-----------------------------------------------------------|
G|-------5-------5-------------------0----------0--------------------------|
D|-----5-----------5---------------0--0-------0---0------------------------|
A|---3---------------3-2-1-0---1-3------3-1-3-------3-1--------------------|
E|-------------------------------------------------------------------------|


|------------5-------------------------------------------------------------|
B|---------6---6--------------6----------3---------------------------------|
G|-------7--------7--------7-----------4-----------------------------------|
D|----7-------------7----7-----------5-------x2----------------------------|
A|--5-----------------5------------5---------------------------------------|
E|-------------------------------3-----------------------------------------|

e|----------6--------------------------------3~~---------------------------|
B|--------6---6-----------6-----------4------3~~---------------------------|
G|------8-------8-------8-----------5--------4~~---------------------------|
D|----8-----------8---8-----------5------x2--5~~---------------------------|
A|--6---------------6-----------3------------5~~---------------------------|
E|-------------------------------------------3~~---------------------------|

e|--15----------------13------------12-------------------------------------|
B|-----15-13-------------13-12-11------11-10----10-------------------------|
G|-----------15---x4-------------------------12----------------------------|
D|-------------------------------------------------------------------------|
A|-------------------------------------------------------------------------|
E|-------------------------------------------------------------------------|

(Guitar 2)
e|-------------------------------------------------------------------------|
B|--8----5-6-8--5---5---5-------3-5-6--------------------------------------|
G|----7-----------7---5---7---3-------5------0---2~~~~---------------------|
D|-------------------------------------------------------------------------|
A|-------------------------------------------------------------------------|
E|-------------------------------------------------------------------------|

e|-------------------------------------------------------------------------|
B|--10------5-----------10-------5---------8-------------------------------|
G|-----9--5----7------------9--5---7---------7--3-7-5--2-0-2---2-----------|
D|----------------8--5----------------8-5--------------------3-------------|
A|----------------------------------------------------------------5--------|
E|-------------------------------------------------------------------------|

e|--8-----------------------------------------------------8-10-5-----------|
B|-----8--10--11-13--10-8--10-6-10-8--4--8-10-11-6--10-11------------------|
G|-------------------------------------------------------------------------|
D|-------------------------------------------------------------------------|
A|-------------------------------------------------------------------------|
E|-------------------------------------------------------------------------|

e|--6--10--13----------------------13------------------------------1-------|
B|------------14--------------10------14------------10-------------1-------|
G|-----------------7--9-10-10------------7-9-10-10-----10-7-10-7---2-------|
D|-----------------------------------------------------------------3-------|
A|-----------------------------------------------------------------3-------|
E|-----------------------------------------------------------------1-------|

e|-------------------------------------------------------------------------|
B|----------------------------------3--------------------------------------|
G|-----------------------7---------------------------------8-9-9-8-12-12---|
D|--10-8-7-5-7-8-10-10-13--7------------10-8-7-5-7-8-10-10-----------------|
A|---------------------------5---5--5--------------------------------------|
E|-----------------------------5-------------------------------------------|

e|----------------------------0--------------------------|
B|----------------------------0--------------------------|
G|-10-9-7-9-10-10-9-6-4-2-1---1--------------------------|
D|----------------------------2--------------------------|
A|----------------------------2--------------------------|
E|----------------------------0--------------------------|

e|------------------------------------------------------------------------|
B|--6-5-5-6-6-5--------------------1--------------------------------------|
G|--7-4-4-7-7-4-----------------------------------------------------------|
D|---------------3-2-2-3-3-5-3-2-0-----x2---------------------------------|
A|---------------5-2-2-5-------2-2-3--------------------------------------|
E|------------------------------------------------------------------------|

e|-----------------------------------------------------1-------------------|
B|--8----5-6-8--5---5---5-------3-5-6--------------------------------------|
G|----7-----------7---5---7---3-------5------0---2~~~~---------------------|
D|-------------------------------------------------------------------------|
A|-------------------------------------------------------------------------|
E|-------------------------------------------------------------------------|





Comments


Popular Claude Debussy tabs & chords
2nd Arabesque Tabs
Arabesque Tabs
Clair De Lune Intro Tabs
Claire De Lune Tabs
Girl With The Flaxen Hair Tabs
Images Tabs


Song lyrics



↑ Back to top | Tablatures and chords are parodies/interpretations of the original songs. You may use it for private study, scholarship, research or language learning purposes only
© 2014 AZChords.com Contact us | Privacy policy | DMCA | Add/correct tabs | Request tabs | Top 50 tabs