» » »

Born Too Late Tabs (ver.2)

Artists:  A B C D E F G H I J K L M N O P Q R S T U V W X Y Z # 

Born Too Late Tabs (ver.2)

Clarks
Rating:
0/5 (0 votes)

Hard to play? Try these video lessons and learn fast.
                Born too Late


1st verse:
                      D        E       A
e|--------------------2--------0-------0------|
B|--------------------3--------0-------2------|
G|--------------------2--------1-------2------|
D|--------------------0--------2-------2------|
A|---4---2----0----------------2-------0------|
E|-----------------4-----------0--------------|
    Vincent will you teach me how to paint


                   D   E     A
e|-----------------2---0-----0------|
B|-----------------3---0-----2------|
G|-----------------2---1-----2------|
D|-----------------0---2-----2------|
A|---4--2--0-----------2-----0------|
E|-------------4-------0------------|
  Theresa will I ever be a saint


                  F#m        E          Bm                  E
e|-----------------2---------0----------2-------------------0---|
B|-----------------2---------0----------3-------------------0---|
G|-----------------2---------1----------4-------------------1---|
D|-----------------4---------2----------4-------------------2---|
A|---4--2--0-------4---------2----------2-------------------2---|
E|------------4----2---------0----------2-------------------0---|
  John I really think your songs are great, I was born too late


Repeat for all verses


            A          D           E
I've gotta hard time leavin' this town
            A           D              E
I've been losin' everything that I've found
            F#m
I'm gonna search the sky
Bm
Kiss the ground
C#m
Built it up
     D            E
And tear it back down

Solo:

e--------------------------0---------------------------0-|
b--2-0--------------------0-----2-0-----------0-2-----0--|
G------2-1-----2-1--2-2--2----------2-1-----2-----2--2---|
D-----------4----------------------------4---------------|
A--------------------------------------------------------|
E--------------------------------------------------------|

e--------------0------0------0---------------------------|
b--2-0--------0-0-------0------0-------------------------|
G------2-1---4---4---2------2----------------------------|
D-----------4-------2------0-------------2---------------|
A-----------------------------------2s4-----4-2----------|
E------------------------------------------------4p2p0---|*harmonic only

e------------------*5------------------------------------|  on"live"
b----------------5---------------------------------------|
G--------------4-----------------------------------------|
D------2---4s6-------------------------------------------|
A--2s4---------------------------------------------------|
E--------------------------------------------------------|


End it like this:
                        A (let ring)
e|----------------------0------|
B|----------------------2------|
G|----------------------2------|
D|----------------------2------|
A|---4---2----0---------0------|
E|-----------------4-----------|
            
Hard to play? Try these video lessons and learn fast. | Correct




comments powered by Disqus
↑ Back to top | Tablatures and chords are parodies/interpretations of the original songs. You may use it for private study, scholarship, research or language learning purposes only