» » »

Better Off Without You Bass tabs (ver.2)

Artists:  A B C D E F G H I J K L M N O P Q R S T U V W X Y Z # 

Better Off Without You Bass tabs (ver.2)

Clarks
Rating:
0/5 (0 votes)

Hard to play? Try these video lessons and learn fast.
                -------------------------------------------------------------------------------
			     The Clarks - Better Off Without You 
-------------------------------------------------------------------------------
                            
INTRO
|-------------------------------------------------|
|-------------------------------------------------|
|-------------7--7--------5--5-------5--5-5-5-4---|
|--5--5-------------------------------------------|X2

VERSE
|---------------------------------------------------|
|---------------------------------------------------|
|--------------7--7--7--7---5--5--5--5--5--5--5--5--|
|--5--5--5--5---------------------------------------|X4

PRECHORUS
|---------------------------------------------------|
|---------------------------------------------------|
|--7--7--7--7--7--7--7--7---7--7--7--7--7--7--7--7--|
|---------------------------------------------------|X2

CHORUS
|--------------------------------------------------------------------------------------|
|--------------------------------------------------------------------------------------|
|--------------7--7--7--7---5--5--5--5--5--5--5--5----------7--7---5--5---5--5-5-5-4---|
|--5--5--5--5----------------------------------------5--5------------------------------|

BRIDGE
|----------------------------------------------------------------------------|
|----------------------------------------------------------------------------|
|--7--7--7--7--7--7--7--7---7--7--7--7--7--7--7--7---5--5--5--5--5--5--5--5--|
|----------------------------------------------------------------------------|

|---------------------------------------------------|
|---------------------------------------------------|
|--5--5--5--5--5--5--5--5---7--7--7--7--7--7--7--7--|
|---------------------------------------------------|

|----------------------------------------------------------------------------|
|----------------------------------------------------------------------------|
|--7--7--7--7--7--7--7--7---5--5--5--5--5--5--5--5---7--7--7--7--7--7--7--7--|
|----------------------------------------------------------------------------|

OUTRO
|---------------------------------------------------|
|---------------------------------------------------|
|--0--0--0--0--0--0--0--0---0--0--0--0--0--0--0--0--|
|---------------------------------------------------|
            
Hard to play? Try these video lessons and learn fast. | Correct




comments powered by Disqus
↑ Back to top | Tablatures and chords are parodies/interpretations of the original songs. You may use it for private study, scholarship, research or language learning purposes only