» » »

Clarke Gilby, Cure Me Tabs (ver.1)

Artists:  A B C D E F G H I J K L M N O P Q R S T U V W X Y Z # 

Cure Me Tabs (ver.1)

Clarke Gilby Tabs
Rating:
0/5 (0 votes)
Cure Me lessons Tabs too difficult? Try these video lessons and learn fast
                Cure Me... Or Kill Me...

Written by Gilby Clarke

Transcription written by Matt Spencer


Taken from the his solo ablum Pawnshop Guitars   (Which rocks)!


Intro

Start with Pick Scr*pe


e---------------------------|--|----------|------------------------|---
b----------------0----------|--|----------|----------------0-------|---
d-------------------0-------|--|---0------|------------0-----0-----|---
g----------2-----------2----|--|------2---|--------2---------------|---
a-------2-------------------|--|---------2|-----2------------------|---
e----0----------------------|--|----------|---0--------------------|---

Let it ring

Main Riff -  With heavy distortion - Just let rip!
This is one classic riff

Play first few times missing out G and Em chords

e-------------------|----------------|-----------------------|--------------|
b-------------------|----------------|-----------------------|--------------|
d-------------------|----------------|-----------------------|--------------|
g-----2-2-----2-2---|----------------|-------5----2-----5--2-|--------------|
a-----2-2-----2-2---|--1-2-1-0-------|-------5----2-----5--2-|--1-2-1-0-----|
e-0-0-0-0-0-0-0-0---|----------3-0---|-0-0---3----0--0--3--0-|-----------3-0|

e-----------------
b-----------------
d-----------------
g---5---2----5--2-
a---5---2----5--2-
e---3---0----3--0-

Repeat into:

								
                      (Fill 1)
a------------------|-------------------|------------------|--
e-6--5--3--5--5--0-|--0--3--3--5--5--0-|--6--5--3-5--5--0-|--

 	     When the last car hit.....
a------------------|-------------------|--------------------
e--0--3--3--5--5--0|--6--5--3--5--5--0-|-------------------



Fill 1:

a-----5--5--7--7----
e--0--3--3--5--5--0-


The Rest Of Verse:


B5  C5  A5  B5


End First Verse With:

e-------------------------|-------------|-----------------------|
b-------------------------|-------------|-------12-12-14-14-----|
g-------------------------|-------------|-------12-12-14-14-----|
d----4--------------------|-------------|--------------------14-|
a----2---0--0-------------|-------------|-----------------------|
e---------------3--3--2b--|-6-5-3-5-5-0-|-X-X-0-----------------|



Start Second verse With:

				  There's a....
e----------------|---------------------------|--
b----------------|----14b---12--14--14-------|--
d----------------|----14b---12--14--14-------|--
g----------------|-----------------------14\-|--
a--8\-7-5-7-7-0--|---------------------------|--
e--6\-5-3-5-5-0--|---------------------------|--



Chorus:


G5  D5  B5  Em  F5  C5


Chords Behind Solo

E5  A#  G5  A5


End On:

a---1-2--1-0------2
e-------------3---0

Lyrics

1.
When the first car hit the wall
Was the gulit still in or head?
In your magic crystal ball
Is the poweer that made you mad

You can't save yourself, it's a pleasure cruise
You're damned for a million years

2.
There's a viper in your bedroom
Under the sheets is tarantula fuzz
When she bites, she bites for murder
I bleed the Addams Family blood

There's a spell on me that I can't reverse
It's a sympathy cross you burn


Chorus

Cure me.. Or Kill me..
But don't leave me here for dead
Again
Cure me.. Or Kill me..
But don't leave me here for dead
Again

3.
This is your last happy Christmas
Your worst Birthday party
The cyanide in your poison ring
Wouldn't cure my misery 

Don't bury me when I'm history 
I think you'll find an easy way out
            
Submit corrections

comments powered by Disqus
↑ Back to top | Clarke Gilby Tabs for Cure Me. Lyrics for acoustic guitar and electric guitar. Tablatures and chords are parodies/interpretations of the original songs. You may use it for private study, scholarship, research or language learning purposes only