» » »

Clare Bowditch And The Feeding Set, Peccadilloes Tabs (ver.1)

Artists:  A B C D E F G H I J K L M N O P Q R S T U V W X Y Z # 

Peccadilloes Tabs (ver.1)

Clare Bowditch And The Feeding Set Tabs
Rating:
5/5 (2 votes)
Peccadilloes lessons Tabs too difficult? Try these video lessons and learn fast
                ----------------------------------------------------------------------------
----------------------------------------------------------------------------
Tuning: Standard


INTRO:
e|------------------------------------------------------------------------|
B|------------------------------------------------------------------------|
G|---0-0-0-0-0-0-0-0-0-0-0-0-0-0-0-0---0-0-0-0-0-0-0-0---0-0-0-0-0-0-0-0--|
D|------------------------------------------------------------------------|
A|--0-0-0-0-0-0-0-0-0-0-0-0-0-0-0-0---------------------0-0-0-0-0-0-0-0---|
E|------------------------------------1-1-1-1-1-1-1-1---------------------|
                                                                       (x2)


VERSES:
e|------------------------------------------------------------------------|
B|------------------------------------------------------------------------|
G|---0-0-0-0-0-0-0-0-0-0-0-0-0-0-0-0---0-0-0-0-0-0-0-0---0-0-0-0-0-0-0-0--|
D|------------------------------------------------------------------------|
A|--0-0-0-0-0-0-0-0-0-0-0-0-0-0-0-0---------------------0-0-0-0-0-0-0-0---|
E|------------------------------------1-1-1-1-1-1-1-1---------------------|

e|------------------------------------------------------------------------|
B|------------------------------------------------------------------------|
G|---0-0-0-0-0-0-0-0-0-0-0-0-0-0-0-0---0-0-0-0-0-0-0-0---0-0-0-0-0-0-0-0--|
D|------------------------------------------------------------------------|
A|--0-0-0-0-0-0-0-0-0-0-0-0-0-0-0-0---------------------0-0-0-0-0-0-2-2---|
E|------------------------------------1-1-1-1-1-1-1-1---------------------|



CHORUS:

~First Chorus~
e|-------------0------------------------------------------------------|
B|---------0-------0--------------------------------------------------|
G|---0-0-0---0---0---0-0-0-0-0-0-0-0-0-0-0-0-0-0-0-0-0-0-0-0-0-0-0-0--|
D|--------------------------------------------------------------------|
A|--3-3-3-3-3-3-3-3-3-3-3-3-0-0-2-2-------------------------0-0-2-2---|
E|----------------------------------1-1-1-1-1-1-1-1-1-1-1-1-----------|

e|-------------0--------------------------------------------------------|
B|---------0-------0----------------------------------------------------|
G|---0-0-0---0---0---0-0-0-0-0-0-0-0--0-0-0-0-0-0-0-0--0-0-0-0-0-0-0-0--|
D|----------------------------------------------------------------------|
A|--3-3-3-3-3-3-3-3-3-3-3-3-0-0-2-2-------------------5-5-5-5-5-5-5-5---|
E|-----------------------------------1-1-1-1-1-1-1-1--------------------|


~Second & Third Chorus~
e|-------------0-------------------------------0----------------------|
B|---------0-------0-----------------------0-------0------------------|
G|---0-0-0---0---0---0-0-0-0-0-0-0-0-0-0-0---0---0---0-0-0-0-0-0-0-0--|
D|--------------------------------------------------------------------|
A|--3-3-3-3-3-3-3-3-3-3-3-3-0-0-2-2-------------------------0-0-2-2---|
E|----------------------------------1-1-1-1-1-1-1-1-1-1-1-1-----------|

e|-------------0--------------------------------------------------------|
B|---------0-------0----------------------------------------------------|
G|---0-0-0---0---0---0-0-0-0-0-0-0-0--0-0-0-0-0-0-0-0--0-0-0-0-0-0-0-0--|
D|----------------------------------------------------------------------|
A|--3-3-3-3-3-3-3-3-3-3-3-3-0-0-2-2-------------------5-5-5-5-5-5-5-5---|
E|-----------------------------------1-1-1-1-1-1-1-1--------------------|



POST-CHORUS:
e|-----------------------------0--------------------------------0--------|
B|-------------------------0--------------------------------0-------0----|
G|---0-0-0-0-0-0-0-0-0-0-0---0---0-0-0-0-0-0-0-0-0-0--0-0-0---0---0---0--|
D|-----------------------------------------------------------------------|
A|--0-0-0-0-0-0-0-0-0-0-0-0-0-0-0-0------------------0-0-0-0-0-0-0-0-0---|
E|----------------------------------1-1-1-1-1-1-1-1----------------------|
                                                                    (x2)



BRIDGE:
e|--------------------------------------------------------------------|
B|--------------------------------------------------------------------|
G|---0-0-0-0-0-0-0-0-0-0-0-0-0-0-0-0-0-0-0-0-0-0-0-0-0-0-0-0-0-0-0-0--|
D|--------------------------------------------------------------------|
A|--6-6-6-6-6-5-5-5-8-8-8-8-8-5-5-5-6-6-6-6-6-5-5-5-8-8-8-8-8-5-5-5---|
E|--------------------------------------------------------------------|

e|-------------------------------------------------------------------|
B|-------------------------------------------------------------------|
G|---0-0-0-0-0-0-0-0-0-0-0-0-0-0-0-0--0--0--0--0--0--0-----0-----0---|
D|-------------------------------------------------------------------|
A|--6-6-6-6-6-5-5-5-8-8-8-8-8-8-8-8-10-10-10-10-10-10-10/11-10/11----|
E|-------------------------------------------------------------------|

e|-------------------------------------------------------------------|
B|-------------------------------------------------------------------|
G|----0--0--0--0--0--0-----0-----0---0--0--0--0--0--0-----0-----0----|
D|-------------------------------------------------------------------|
A|--10-10-10-10-10-10-10/11-10/11--10-10-10-10-10-10-10/11-10/11-----|
E|-------------------------------------------------------------------|

e|------------------------|
B|------------------------|
G|----0--0--0--0-0-0-0-0--|
D|------------------------|
A|--10-10-10-10-0-0-2-2---|
E|------------------------|



OUTRO:
e|-----------------------------0-----------------------------------------|
B|-------------------------0-----0---------------------------------------|
G|---0-0-0-0-0-0-0-0-0-0-0---0-----0-0-0-0-0-0-0-0-0-0--0-0-0-0-0-0-0-0--|
D|-----------------------------------------------------------------------|
A|--0-0-0-0-0-0-0-0-0-0-0-0-0-0-0-0-0------------------0-0-0-0-0-0-0-0---|
E|------------------------------------1-1-1-1-1-1-1-1--------------------|

e|-----------------------------0-----------------0-----------------------|
B|-------------------------0-----0-----------0---------------------------|
G|---0-0-0-0-0-0-0-0-0-0-0---0-----0-0-0-0-0---0---0-0--0-0-0-0-0-0-0-0--|
D|-----------------------------------------------------------------------|
A|--0-0-0-0-0-0-0-0-0-0-0-0-0-0-0-0-0------------------0-0-0-0-0-0-0-0---|
E|------------------------------------1-1-1-1-1-1-1-1--------------------|

e|-----------------------------------------------------|
B|-----------------------------------------------------|
G|-----------------------------------------------------|
D|-----------------------------------------------------|
A|--0-------0-------0-------0-----------------------0--|
E|----------------------------------1-------1---3------|


============================================================================

STRUCTURE:
Intro
Verse
First Chorus
Post-Chorus
Verse
Second Chorus
Bridge
Third Chorus
Outro


KEY:
/ = slide up

============================================================================
            
Submit corrections

comments powered by Disqus
↑ Back to top | Clare Bowditch And The Feeding Set Tabs for Peccadilloes. Lyrics for acoustic guitar and electric guitar. Tablatures and chords are parodies/interpretations of the original songs. You may use it for private study, scholarship, research or language learning purposes only