» » »

Clare Bowditch And The Feeding Set, Little Black Cave Tabs (ver.1)

Artists:  A B C D E F G H I J K L M N O P Q R S T U V W X Y Z # 

Little Black Cave Tabs (ver.1)

Clare Bowditch And The Feeding Set Tabs
Rating:
4/5 (2 votes)
Little Black Cave lessons Tabs too difficult? Try these video lessons and learn fast
                ----------------------------------------------------------------------------
----------------------------------------------------------------------------
Tuning: Standard

This song is just these two sections played over and over again.


MAIN RIFF:
e|----------------------------------------------------|
B|----------------------------------------------------|
G|-------0-0---0----0--------0------0-0---0----0------|
D|----0h2-2---0-0--0-0----0h2----0h2-2---0-0--0-------|
A|-----------3----------2-3-------------3--------2-3--|
E|--0-------------3------------0-------------3--------|


CHORUS:
e|---------------------------------------|
B|-------0-0------0-0------0-0------0-0--|
G|----0h2-2----0h2-2----0h2-2----0h2-2---|
D|---------------------------------------|
A|--3------------------------------------|
E|-----------3--------0--------0---------|


LYRICS:

I neatly fold our love in four,
I hug my mother, I bolt my door.
I go to find our love a little black cave
and dig it down deep and hope it will behave.

I would do anything for your love.
I would do anything for your love.
Yes I would do most any old thing;
I'd humble my heart, I'd let you win.
I would do most any old thing;
in the hollow of the night it's You, You, You I sing for.

I found our love that little black cave,
but I couldn't get back 'cause it didn't have a name.
So don't you say you died a thousand deaths
to bring me words I still haven't heard yet.

I would do anything for your love.
I would do anything for your love.
Yes I would do most any old thing;
I'd humble my heart, I'd let you win.
I would do most any old thing;
I'd give my word, I'd make you king, yes.
I would do most any old thing.
In the hollow of the night it's You, You, You I sing for.

I found our love a little black cave,
but I couldn't get back 'cause it didn't have a name no.
Dig and dug. Toil and toil.
I left my love for you inside that cave hole.

============================================================================

STRUCTURE:
Main Riff  (x  4)
Chorus     (x  4)
Main Riff  (x  4)
Chorus     (x 12)
Main Riff  (x  1)


KEY:
h = hammer-on

============================================================================
            
Submit corrections

comments powered by Disqus
↑ Back to top | Clare Bowditch And The Feeding Set Tabs for Little Black Cave. Lyrics for acoustic guitar and electric guitar. Tablatures and chords are parodies/interpretations of the original songs. You may use it for private study, scholarship, research or language learning purposes only