» » »

Clare Bowditch And The Feeding Set, Between The Tea And The Toast Tabs (ver.1)

Artists:  A B C D E F G H I J K L M N O P Q R S T U V W X Y Z # 

Between The Tea And The Toast Tabs (ver.1)

Clare Bowditch And The Feeding Set Tabs
Rating:
5/5 (1 vote)
Between The Tea And The Toast lessons Tabs too difficult? Try these video lessons and learn fast
                so basically, its almost the same as the chord version being picked but there are a few 
differences.
this is my first tab and boy it was annoying to type out so yeah, be nice.

Intro:
E ----------------------------------------------------|
B -----1-----1-----1-----1-------1------1-----0-----0-|
G ----0-----0-----0-----0------0------0-----0-----0---|
D ----------------------------------------------------|
A --3-----3-----0-----0-------------------------------|
E --------------------------3-----3-----3-----3-------|

E -------------------------------------------------------|
B ------1------1------1-------0------1-----1-----1-----1-|
G ----0------0------0-------0------0-----0-----0-----0---|
D -------------------------------------------------------|
A -------------------------------3-----3-----3-----3-----|
E --1-----1------1------1--------------------------------|

Verse (almost the same as intro, slight differences):
E ----------------------------------------------------|
B -----1-----1-----1-----1-------1------0-----0-----0-|
G ----0-----0-----0-----0------0------0-----0-----0---|
D ----------------------------------------------------|
A --3-----3-----0-----0-------------------------------|
E --------------------------3-----3-----3-----3-------|
   Oh           pretty      love,                aren’t you

E -------------------------------------------------------|
B ------1------1------1-------0------1-----1-----1-----1-|
G ----0------0------0-------0------0-----0-----0-----0---|
D -------------------------------------------------------|
A -------------------------------3-----3-----3-----3-----|
E --1-----1------1------1--------------------------------|
    worried                 about us?

then the bass part does this weird thing where its like:

E ----------------------------------------------------|
B -----1-----1-----1-----1-------1------0-----0-----0-|
G ----0-----0-----0-----0------0------0-----0-----0---|
D ----------------------------------------------------|
A --3-------------------------------------------------|
E --------3-----5-----1-----3-----3-----3-----3-------|


E --------------------------------------------------------|
B ------1------1------1-------0------1-----1-----1--------|
G ----0------0------0-------0------0-----0-----0----------|
D --------------------------------------------------------|
A -------------------------------3-----3-----3------3-3-4-|
E --1-----1------1------1---------------------------------|


Chorus:
E ---------------------------------------------------|
B -----1-----1-----1-----1------1-----1-----0----0---|
G ----2-----2-----2-----2-----0-----0-----0-----0----|
D ---------------------------------------------------|
A --0-----0-----0----0-------------------------------|
E -------------------------3-----3-----3-----3-------|

E --------------------------------------------------------|
B ------1------1------1-------0------1-----1-----1--------|
G ----0------0------0-------0------0-----0-----0----------|
D --------------------------------------------------------|
A -------------------------------3-----3-----3------3-3-4-|
E --1-----1------1------1---------------------------------|

E ---------------------------------------------------|
B -----1-----1-----1-----1------1-----1-----0----0---|
G ----2-----2-----2-----2-----0-----0-----0-----0----|
D ---------------------------------------------------|
A --0-----0-----0----0-------------------------------|
E -------------------------3-----3-----3-----3-------|

E --------------------------------------------------------|
B ------1------1------1-------0------1-----1-----1------1-|
G ----0------0------0-------0------0-----0-----0------0---|
D --------------------------------------------------------|
A -------------------------------------------3------3-----|
E --1-----1------1------1--------4-----4------------------|

Post Chorus:
E ----------------------------------------------------|
B -----1-----1-----1-----1-------1------1-----0-----0-|
G ----0-----0-----0-----0------0------0-----0-----0---|
D ----------------------------------------------------|
A --3-----3-----0-----0-------------------------------|
E --------------------------3-----3-----3-----3-------|

E -------------------------------------------------------|
B ------1------1------1-------0------1-----1-----1-----1-|
G ----0------0------0-------0------0-----0-----0-----0---|
D -------------------------------------------------------|
A -------------------------------3-----3-----3-----3-----|
E --1-----1------1------1--------------------------------|

Verse 2
E ----------------------------------------------------|
B -----1-----1-----1-----1-------1------0-----0-----0-|
G ----0-----0-----0-----0------0------0-----0-----0---|
D ----------------------------------------------------|
A --3-----3-----0-----0-------------------------------|
E --------------------------3-----3-----3-----3-------|

E -------------------------------------------------------|
B ------1------1------1-------0------1-----1-----1-----1-|
G ----0------0------0-------0------0-----0-----0-----0---|
D -------------------------------------------------------|
A -------------------------------3-----3-----3-----3-----|
E --1-----1------1------1--------------------------------|

E ----------------------------------------------------|
B -----1-----1-----1-----1-------1------0-----0-----0-|
G ----0-----0-----0-----0------0------0-----0-----0---|
D ----------------------------------------------------|
A --3-------------------------------------------------|
E --------3-----5-----1-----3-----3-----3-----3-------|

E --------------------------------------------------------|
B ------1------1------1-------0------1-----1-----1--------|
G ----0------0------0-------0------0-----0-----0----------|
D --------------------------------------------------------|
A -------------------------------3-----3-----3------3-3-4-|
E --1-----1------1------1---------------------------------|

Chorus:
E ---------------------------------------------------|
B -----1-----1-----1-----1------1-----1-----0----0---|
G ----2-----2-----2-----2-----0-----0-----0-----0----|
D ---------------------------------------------------|
A --0-----0-----0----0-------------------------------|
E -------------------------3-----3-----3-----3-------|

E --------------------------------------------------------|
B ------1------1------1-------0------1-----1-----1--------|
G ----0------0------0-------0------0-----0-----0----------|
D --------------------------------------------------------|
A -------------------------------3-----3-----3------3-3-4-|
E --1-----1------1------1---------------------------------|

E ---------------------------------------------------|
B -----1-----1-----1-----1------1-----1-----0----0---|
G ----2-----2-----2-----2-----0-----0-----0-----0----|
D ---------------------------------------------------|
A --0-----0-----0----0-------------------------------|
E -------------------------3-----3-----3-----3-------|

E --------------------------------------------------------|
B ------1------1------1-------0------1-----1-----1------1-|
G ----0------0------0-------0------0-----0-----0------0---|
D --------------------------------------------------------|
A -------------------------------------------3------3-----|
E --1-----1------1------1--------4-----4------------------|

Bridge:
E ----------------------------------------------------|
B -----1-----1-----1-----1-------1------0-----0-----0-|
G ----0-----0-----0-----0------0------0-----0-----0---|
D ----------------------------------------------------|
A --3-----3-----0-----0-------------------------------|
E --------------------------3-----3-----3-----3-------|

E -------------------------------------------------------|
B ------1------1------1-------0------1-----1-----1-----1-|
G ----0------0------0-------0------0-----0-----0-----0---|
D -------------------------------------------------------|
A -------------------------------3-----3-----3-----3-----|
E --1-----1------1------1--------------------------------|

E ----------------------------------------------------|
B -----1-----1-----1-----1-------1------0-----0-----0-|
G ----0-----0-----0-----0------0------0-----0-----0---|
D ----------------------------------------------------|
A --3-------------------------------------------------|
E --------3-----5-----1-----3-----3-----3-----3-------|

E --------------------------------------------------------|
B ------1------1------1-------0------1-----1-----1--------|
G ----0------0------0-------0------0-----0-----0----------|
D --------------------------------------------------------|
A -------------------------------3-----3-----3------3-3-4-|
E --1-----1------1------1---------------------------------|

Chorus until end.

thats it. not hard.
(note that where the weird bass part comes in, its easier to just play the normal riff 
have a second bass player play that part. either way, the acoustic guitar should only 
the normal riff unless you have extremely crazy finger dexterity)

:)
            
Submit corrections

comments powered by Disqus
↑ Back to top | Clare Bowditch And The Feeding Set Tabs for Between The Tea And The Toast. Lyrics for acoustic guitar and electric guitar. Tablatures and chords are parodies/interpretations of the original songs. You may use it for private study, scholarship, research or language learning purposes only