» » »

Clap Your Hands Say Yeah, Underwater (You And Me) Tabs (ver.1)

Artists:  A B C D E F G H I J K L M N O P Q R S T U V W X Y Z # 

Underwater (You And Me) Tabs (ver.1)

Clap Your Hands Say Yeah Tabs
Rating:
0/5 (0 votes)
Underwater (You And Me) lessons Tabs too difficult? Try these video lessons and learn fast
                Alec on EBow
------------------------------------------|-----------------|
------------------------------------------|-----------------|
------------------------------------------|-----------------|
-12-11\6/7~7/12~12~12-11-9-11~11-12-11~11-|--11-12-14~^16~v-|
------------------------------------------|-----------------|
------------------------------------------|-----------------|
Main EBow line                              EBow verses

***************
Rhythm guitar (left channel):
-------------------0------0-----------------------7--7-7-9-7-|
-10-12-10----------9------9------------10----10---7--9-7-7-7-|
--9--9--9---11----11--11-11---11----11-11-11-11---9--9-9-9-9-|
-11-11-11---11-11-----11------12-12-12----12-----------------|
-------------------------------9--9--------------------------|
-------------------------------------------------------------|
Played throughout till outro, over and over again.

***************
Rhythm guitar (right channel)throughout
-5-----4-----5-----7-|
-5-----5-----5-----5-|
-6-----4-----4-----4-|
-------------4-------|
---------------------|
---------------------|
Repeats throughout

-5----4---9---5----7-|
-5----5--10---5----5-|
-6----4---9---6----4-|
---------------------|
---------------------|
---------------------|
Every fourth (maybe eighth?) go around, it changes to this

***************
Another guitar
-5-2---4-0---2--------------------|
---------------3---5-2---3-2-0----|
--------------------------------2-|
----------------------------------|
----------------------------------|
----------------------------------|
This line is played at the end of verses

-----------------|
-----------7-----|
--9---9---9----9-|
-9---9----9---7--|
-7---7--------7--|
-----------------|
Between 1:48 and 2:15, this guitar plays these bits.

-5-4---------------|
-----7-5-----6---7-|
---------6---------|
-------------------|
-------------------|
-------------------|
Starting at 3:52, this is heard between(barely).
Becomes more apparent just before the outro.
(Four guitars at the same time?! Studio trickery!)

***************
Outro
---------------------------------------2-----3----------------|
-0-----2-------------2-------------3-----3------------0-------|
---2-----2---2-----2----2---2----2---2-----2--------1---1---1-|
-----2-----2-----2--------2----0--------------------------2---|
---------------4----------------------------------2-----------|
------------------------------------------------0-------------|
Starts around 4:10
            
Submit corrections

comments powered by Disqus
↑ Back to top | Clap Your Hands Say Yeah Tabs for Underwater (You And Me). Lyrics for acoustic guitar and electric guitar. Tablatures and chords are parodies/interpretations of the original songs. You may use it for private study, scholarship, research or language learning purposes only